Cold Chisel - Khe Sahn Chords & Tabs

 

Khe Sahn Chords & Tabs

Cold Chisel Chords & Tabs

Version: 1 Type: Bass Tab 0 ratings
1 star 2 stars 3 stars 4 stars 5 stars
comments

Khe Sahn Bass Tab

G---------------------------------|
D---------------------------------|
A--------3-33-3-------------------|
E-0-00-0--------3-33-3-3-33-3-----|

G---------------------------------|
D---------------------------------|
A--------3-33-3--5-55-5-5-55-5----|
E-0-00-0--------------------------|
[ Tab from: http://www.guitartabs.cc/tabs/c/cold_chisel/khe_sahn_btab.html ]
G---------------------------------|
D---------------------------------|
A--------3-33-3---------3-33-3----|
E-0-00-0--------3-33-3------------|

G----------------------------------|
D----------------------------------|
A--0-00-0--/-8-88-8-\5-55-5-5-55-5-|
E----------------------------------|

THATS IT THATS THE WHOLE SONG... IT IS PLAYED OVER AND OVER LOTS OF TIMES. SOME OF THE
NOTES CAN BE AN OCTAVE HIGHER OR LOWER. LISTEN TO THE SONG TO HEAR THEM. STILL DON'T
KNOW THE VERY END SLOW PART THOUGH
Comments