Cold - When Heavens Not Far Away Chords & Tabs

 

When Heavens Not Far Away Chords & Tabs

Cold Chords & Tabs

Version: 1 Type: Tab 0 ratings
1 star 2 stars 3 stars 4 stars 5 stars
comments

When Heavens Not Far Away Tab

   
Artist - Cold
Song - When Heavens Not Far Away
Album - A different Kind Of Pain
Tabbed by Jevon MacDonald (marlborojevon@hotmail.com)

Not 100% correct but still decent.

Tuning - Drop E to D

Intro

E [------------------------------------------------------------------------------------|
B [------------------------------------------------------------------------------------|
G [------------------------------------------------------------------------------------|
D [---6-6-----6-6-------6-6-----6-6-----5-5-----6-6/5----6-6-----6-6-----5-5-----6-6/5-|
A [888-8-8-888-8-8---888-8-8-444-4-4-333-3-3-444-4----888-8-8-444-4-4-333-3-3-444-4----|
D [------------------------------------------------------------------------------------|


Verse

For 1st two lines of verse strum F#
    F#
E [-1-------|
B [-1-------|
G [-1-------|
D [-3-------|
A [---------|
D [---------|

[F#]If you slip away in darkness do you fall?
[F#}And if God created love, did he make it for everyone?
*Is there solitude and hope can you still dream
*If the devil makes you cry do you change

*Play this during 3rd and 4th lines of Verse

E [---------------------------------|
B [---------------------------------|
G [---------------------------------|
D [---6-6-----6-6-----5-5-----6-6/5-| x2
A [888-8-8-444-4-4-333-3-3-444-4----|
D [---------------------------------|

Chorus

In my own shame
When heavens not far away
In my own shame
When heavens not far away
[ Tab from: http://www.guitartabs.cc/tabs/c/cold/when_heavens_not_far_away_tab.html ]
Play this during chorus, listening to strumming on track
E [---------------------------------------------|
B [---------------------------------------------|
G [---------------------------------------------|
D [4-4-4-4-4-6-6-6-6-6-8-8-8-8-8-11-11-11-11-11-|
A [4-4-4-4-4-6-6-6-6-6-8-8-8-8-8-11-11-11-11-11-|
D [4-4-4-4-4-6-6-6-6-6-8-8-8-8-8-11-11-11-11-11-|

Verse 2

[F#}Do the little things in life stay with your soul
[F#]Does an angel hold a sign with directions for everyone
*Is there someone there to have that hope for me
*If the stars refuse to shine do you change

Chorus

In my own shame
When heavens not far away
In my own shame
When heavens not far away

Bridge

Bridge lyrics kick in just before 4th set of Cords

E [-----------------------------------------------------------------------------|
B [-----------------------------------------------------------------------------|
G [-----------------------------------------------------------------------------|
D [8-8-8-8-8-8-8-10-10-10-10-10-10-10-11-11-11-11-11-11-11-13-13-13-13-13-13-13-|
A [8-8-8-8-8-8-8-10-10-10-10-10-10-10-11-11-11-11-11-11-11-13-13-13-13-13-13-13-|
D [8-8-8-8-8-8-8-10-10-10-10-10-10-10-11-11-11-11-11-11-11-13-13-13-13-13-13-13-|
                                                     Not far away from me...

or

E [--------------------------------------------------------|
B [--------------------------------------------------------|
G [--------------------------------------------------------|
D [3-3-3-3-3-3-3-5-5-5-5-5-5-5-6-6-6-6-6-6-6-8-8-8-8-8-8-8-|
A [3-3-3-3-3-3-3-5-5-5-5-5-5-5-6-6-6-6-6-6-6-8-8-8-8-8-8-8-|
E [1-1-1-1-1-1-1-3-3-3-3-3-3-3-4-4-4-4-4-4-4-6-6-6-6-6-6-6-|

Not far away from me
Not far away from me
Not far away

Chorus x2

When heavens not far away
When heavens not far away


Finish on
          E[---
          B[---
          G[---
          D[8--
          A[8--
          D[8--

In my opinion the best track off a Different Kind of Pain. Cold f***ing RULE.
Cold Army keep up the support.
                              Jevon
Comments