Cold - Ugly Chords & Tabs

 

Ugly Chords & Tabs

Cold Chords & Tabs

Version: 3 Type: Tab 0 ratings
1 star 2 stars 3 stars 4 stars 5 stars
comments

Ugly Tab

-------------------------------------------------------------------------------
			     COLD - ugly
-------------------------------------------------------------------------------

By:Nick

--Verse/Chorus--
e|---------------------------------------------------------------------------|
B|-------0-----------0-----------2-----------0-------------------------------|
G|-----0---0-------0---0-------0---0-------0---0-----------------------------|
D|---4-------4---4-------4---4-------4---4-------4---------------------------|
A|-2-----------------------0-------------------------------------------------|
E|-------------3-----------------------3-------------------------------------|

--2nd verse before violins--
e|---------------------------------------------------------------------------|
B|-------0-----------0-----------0-------------------------------------------|
G|-----0---0-------0---0-------0---0-----------------------------------------|
D|---4-------4---4-------4---4-------4---------------------------------------|
A|-------------2-----------------------2---2---2-----------------------------|
E|-3-----------------------3-------------3---3---3---------------------------|
[ Tab from: http://www.guitartabs.cc/tabs/c/cold/ugly_tab_ver_3.html ]
--"Suffer"--
e|--3--2--3--1---------------------------------------------------------------|
B|--3--2--3--1---------------------------------------------------------------|
G|--4--3--4--2---------------------------------------------------------------|
D|--5--4--5--3---------------------------------------------------------------|
A|--5--4--5--3---------------------------------------------------------------|
E|--3--2--3--1---------------------------------------------------------------|

--"Why can't you...--
e|--3--2--4--2---------------------------------------------------------------|
B|--3--2--4--2---------------------------------------------------------------|
G|--4--3--5--3---------------------------------------------------------------|
D|--5--4--6--4---------------------------------------------------------------|
A|--5--4--6--4---------------------------------------------------------------|
E|--3--2--4--2---------------------------------------------------------------|

Most of the rest of the song seems to be a combination of these cords played
in a differnt order.  If anybody ever finds the tab book for this album, or 13
ways to bleed on stage, i wanna know about it.  archiebmx@hotmail.com

===============================================================================
Comments