Cold - Ugly Chords & Tabs

 

Ugly Chords & Tabs

Cold Chords & Tabs

Version: 1 Type: Tab 0 ratings
1 star 2 stars 3 stars 4 stars 5 stars
comments

Ugly Tab

   
Ugly
Straight C Tuning, tune down two whole steps

1=C   4=Bb
2=G   5=F
3=Eb  6=C
[ Tab from: http://www.guitartabs.cc/tabs/c/cold/ugly_tab.html ]
| --------------------------------------------------------------------- 
| ----------0--------------0--------------3h0------------2h0-------- 
| -------0----0--------------0---------0------0-------0-------0----- 
| -----4---------4----4--------4----4----------4---4----------------
| ---2---------------2-------------0--------------0------------------ 
| ------------------3------------------------------------------------- 
  Intro/Verse

| ----------0--------------0----------------0--------------0-------- 
| ----------0--------------0----------------0--------------0-------- 
| -------0----0---------0----0---------0------0-------0------0---- 
| -----4---------4----4---------4----4----------4---4----------4-- 
| ---2-----------------------------0---------------0---------------- 
| ------------------3------------------------------------------------ 
  Pre-Chorus

| ----------- 
| ----------- 
| - ---------
| -5----4---
| -5----2---
| -3-------- 
  Chorus strum 
  these chords

Comments