Cold - The Switch Chords & Tabs

 

The Switch Chords & Tabs

Cold Chords & Tabs

Version: 1 Type: Bass Tab 0 ratings
1 star 2 stars 3 stars 4 stars 5 stars
comments

The Switch Bass Tab

   
===================================================================
	Band:   Cold
	Song:   The Switch
	Album:  Cold
	Author: Obsidian (creatorofsong@hotmail.com)
	Tuning: C, F, Bb, Eb
	Notes:  Very easy piece, so play with it and make it interesting.
===================================================================
[ Tab from: http://www.guitartabs.cc/tabs/c/cold/the_switch_btab.html ]
Verse:
Eb|------------------|------------------|------------------|------------------|
Bb|------------------|------------------|------------------|------------------|
F |------------------|------------------|-5-5-5-5--5-5-5-5-|-3-3-3-3--3-3-3-3-|
C |-2-2-2-2--2-2-2-2-|-5-5-5-5--5-5-5-5-|------------------|------------------|

Chorus:

Eb|------------------|------------------|------------------|------------------|
Bb|------------------|------------------|------------------|------------------|
F |-5-5-5-5--5-5-5-5-|-3-3-3-3--3-3-3-3-|------------------|------------------|
C |------------------|------------------|-2-2-----3-3------|-5-5-5-5--5-5-5-5-|

Finale:

Eb|------------------|------------------|
Bb|------------------|------------------|
F |------------------|------------------|
C |-2---2---3---3----|-5---5---5---5----|

End on D (C, 2nd fret)
Comments