Cold - The Day Seattle Died Chords & Tabs

 

The Day Seattle Died Chords & Tabs

Cold Chords & Tabs

Version: 2 Type: Bass Tab 0 ratings
1 star 2 stars 3 stars 4 stars 5 stars
comments

The Day Seattle Died Bass Tab

Cold/Year of the Spider/The Day Seattle Died

Tabbed by: Dave C.

Most of the song is played on the 5th string, but this is for anyone with a
4 string bass. The E is dropped down to a B. The other tabs didnt include
the change in the chorus, but I got it, & I know this is right. Enjoy :)

Tuning:GDAB

Bass comes in at 0:07
                                Verse
G|--------------------------------|--------------------------------|
D|--------------------------------|--------------------------------|
A|--------------------------------|--------------------------------|5x
B|5-5-5-5-5-5-5-5-7-7-7-7-7-7-7-7-|-3-3-3-3-3-3-3-3-0-0-0-0-0-0-0-0|

0:42                           Chorus
G|--------------------------------|--------------------------------|
D|0-0-0-0-0-0-0-0-3-3-3-3-3-3-3-3-|--------------------------------|
A|--------------------------------|-3-3-3-3-3-3-3-3-0-0-0-0-0-0-0-0|2x
B|--------------------------------|--------------------------------|

0:55
Verse 5x

1:30
Chorus 2x
[ Tab from: http://www.guitartabs.cc/tabs/c/cold/the_day_seattle_died_btab_ver_2.html ]
1:43                          Chorus II
G|--------------------------------|--------------------------------|
D|0-0-0-0-0-0-0-0-3-4-5-6---------|--------------------------------|
A|------------------------7-6-5-4-|-3-3-3-3-3-3-3-3-0-0-0-0-0-0-0-0|1x
B|--------------------------------|--------------------------------|

1:50
Chorus 1x

1:57
Chorus II 1x

2:04                            Bridge
G|--------------------------------|--------------------------------|
D|--------------------------------|--------------------------------|
A|--------------------------------|--------------------------------|
B|4-4-4-4-4-4-4-4-0-0-0-0-0-0-0-0-|-2-2-2-2-2-2-2-2-2-2-2-2-2-2-2-2|\
                                                                    2x
G|--------------------------------|--------------------------------|/
D|--------------------------------|--------------------------------|
A|--------------------------------|--------------------------------|
B|4-4-4-4-4-4-4-4-6-6-6-6-6-6-6-6-|-9-9-9-9-9-9-9-9-9-9-9-9-9-9-9-9|

2:31
Chorus 2x

2:45
Chorus II 1x

2:52
Chorus 1x

2:59
Chrous II 2x

3:12  End on
G|---|
D|---|
A|3~-|
B|---|
  End ring at 3:20
Comments