Cold - Superstar Chords & Tabs

 

Superstar Chords & Tabs

Cold Chords & Tabs

Version: 1 Type: Tab 0 ratings
1 star 2 stars 3 stars 4 stars 5 stars
comments

Superstar Tab

Transcribed by - Michael Doyle
Contact me at goawey@hotmail.com
This tab belongs to http://www.iol.ie/~cold

tuning - C F Bb Eb G C (two whole steps/4 frets down)

---------------------------------------------------------------


Superstar

Note -- Some of the chords may be wrong, I tabbed this very fast,
I didn't want to ruin it by listening to it all day.
Add in some open strings and just jam to the song, this is a very basic tab.

Verse 1

"I don't listen much to reason, everybody wants to be here, Santa Claus has lost his mind
Easter Bunny's not a rabbit, tricks are made for kids until, pseudo-psycho man tells you to fly
Everyone just ran around just playing games with anti-socials, no one ever taught you how to fall
I don't listen much to of you, everyone's a ***ing psycho, no one ever taught you how to call"

|---------------------------|---------------------------|
|---------------------------|---------------------------|
|---------------------------|---------------------------|
|-9--9-9-9---9-9-9--9-9-9-9-|-7--7-7-7---7-7-7--7-7-7-7-|
|-7--7-7-7---7-7-7--7-7-7-7-|-5--5-5-5---5-5-5--5-5-5-5-|
|---------------------------|---------------------------|


Chorus

Note -- the muting changes, sometimes there are open strings struck, just play around with it  8-)

"Take it off and shoot it up and show me how, ya used to fly
Take it off and shoot up and show me how, ya used to die
Everyone around you superstar, they can mother ***ing die"

|--------------------------------|-------------------------------------------|
|--------------------------------|-------------------------------------------|
|--------------------------------|-----xxxx--------xxxx-----xxxx--------xxxx-|
|--------------------------------|-----xxxx--------xxxx-----xxxx--------xxxx-|
|-5--5-5-5-5-5-5--4--4-4-4-4-4-4-|-2-2-xxxx-2--2-2-xxxx-2-2-xxxx-2--2-2-xxxx-|
|-3--3-3-3-3-3-3--2--2-2-2-2-2-2-|-0-0-xxxx-0--0-0-xxxx-0-0-xxxx-0--0-0-xxxx-|


Bridge 1
[ Tab from: http://www.guitartabs.cc/tabs/c/cold/superstar_tab.html ]
|-----------------------------|----------------------------|
|-----------------------------|----------------------------|
|-----------------------------|----------------------------|
|-5--5-5-5--5-5-5-5--7--7-7-7-|-7-7-7-7--4--4-4-4--4-4-4-4-|
|-3--3-3-3--3-3-3-3--5--5-5-5-|-5-5-5-5--2--2-2-2--2-2-2-2-|
|-----------------------------|----------------------------|


Verse 2

"I don't give a *** about what you think, all the pseudo-psychos hippies always stink
No one else here brought up questions till you flied, no one gave you any sex until you cried
Trying to be a superstar"

|---------------------------|---------------------------|
|---------------------------|---------------------------|
|---------------------------|---------------------------|
|-4--4-4-4---4-4-4--4-4-4-4-|---------------------------|
|-2--2-2-2---2-2-2--2-2-2-2-|-4--4-4-4---4-4-4--4-4-4-4-|
|---------------------------|-2--2-2-2---2-2-2--2-2-2-2-|


Bridge 2

|---------------------------|---------------------------|
|---------------------------|---------------------------|
|---------------------------|---------------------------|
|-9--9-9-9---9-9-9--9-9-9-9-|-7--7-7-7---7-7-7--7-7-7-7-|
|-7--7-7-7---7-7-7--7-7-7-7-|-5--5-5-5---5-5-5--5-5-5-5-|
|---------------------------|---------------------------|


Chorus 2

"Take it off and shoot it up and show me how, ya used to fly
Take it off and shoot up and show me how, ya used to die
Everyone around you superstar, they can mother ***ing die"

|--------------------------------|-------------------------------------------|
|--------------------------------|-------------------------------------------|
|--------------------------------|-----xxxx--------xxxx-----xxxx--------xxxx-|
|--------------------------------|-----xxxx--------xxxx-----xxxx--------xxxx-|
|-5--5-5-5-5-5-5--4--4-4-4-4-4-4-|-2-2-xxxx-2--2-2-xxxx-2-2-xxxx-2--2-2-xxxx-|
|-3--3-3-3-3-3-3--2--2-2-2-2-2-2-|-0-0-xxxx-0--0-0-xxxx-0-0-xxxx-0--0-0-xxxx-|


Outro

"Superstars lie"

|-------------------------------------------|
|-------------------------------------------|
|-----xxxx--------xxxx-----xxxx--------xxxx-|
|-----xxxx--------xxxx-----xxxx--------xxxx-|
|-2-2-xxxx-2--2-2-xxxx-2-2-xxxx-2--2-2-xxxx-|
|-0-0-xxxx-0--0-0-xxxx-0-0-xxxx-0--0-0-xxxx-|
Comments