Cold - Superstar Chords & Tabs

 

Superstar Chords & Tabs

Cold Chords & Tabs

Version: 1 Type: Bass Tab 0 ratings
1 star 2 stars 3 stars 4 stars 5 stars
comments

Superstar Bass Tab

   
===================================================================
	Band:   Cold
	Song:   Superstar
	Album:  Cold
	Author: Obsidian (creatorofsong@hotmail.com)
	Tuning: C, F, Bb, Eb
	Date:   September 28, 2001
	Notes:  Using a distortion pedal or cranking the gain up 
		can be very helpful, as the bass almost has a lead 
		part in this song. 
===================================================================
[ Tab from: http://www.guitartabs.cc/tabs/c/cold/superstar_btab.html ]
Verse:
(rest, first eight measures)
Eb|------------------|------------------|------------------|------------------|
Bb|------------------|------------------|------------------|------------------|
F |-5------------5(2)|------------------|-5-------------5--|------------------|
C |------------------|-4------------(0)-|------------------|-4--------0-------|
(That in parentheses is sometimes added and sometimes not)

Chorus:

Eb|------------------|------------------|------------------|------------------|
Bb|------------------|------------------|------------------|------------------|
F |-3----------------|-2----------------|------------------|------------------|
C |------------------|------------------|-0-0--------0---0-|-0-0--------0---0-|

Finale:
Eb|------------------|
Bb|------------------|
F |------------------|
C |-0-0--------0---0-|
Comments