Cold - Stupid Girl Chords & Tabs

 

Stupid Girl Chords & Tabs

Cold Chords & Tabs

Version: 3 Type: Bass Tab 0 ratings
1 star 2 stars 3 stars 4 stars 5 stars
comments

Stupid Girl Bass Tab

This is the bridge in Stupid Girl by Cold.

Standard Tuning (EADG)


E--------------------------
A-0-2-3-2-3--2-3-5-3-7-5-3-
D------3---1---------------
G--------------------------

[ Tab from: http://www.guitartabs.cc/tabs/c/cold/stupid_girl_btab_ver_3.html ]
E--------------------------
A-0-2-3-2-3--2-3-5-3-7-5-3-
D------3---1---------------
G--------------------------

                       Play 2x

This song is extrmemly easy and fun to play.
The bridge is also good practise for beginners.
Comments