Cold - Strip Her Down Chords & Tabs

 

Strip Her Down Chords & Tabs

Cold Chords & Tabs

Version: 1 Type: Tab 0 ratings
1 star 2 stars 3 stars 4 stars 5 stars
comments

Strip Her Down Tab

   
To play this song drop dune to (C,G,C,F,A,D)

play this w/ acoustic or clean tone
--------------------------------------------------------------------------------------------------------------------------
--------------------------------------------------------------------------------------------------------------------------
---------5-5-5--5-5-5-5-5--------4-4-4--4-4-4-4-4--------3-3-3--3-3-3-3-3-------------------------------
---------3-3-3--3-3-3-3-3--------2-2-2--2-2-2-2-2--------1-1-1--1-1-1-1-1---------2-2-2--2-2-2-2---   (x4)
---------3-3-3--3-3-3-3-3-x-xx-2-2-2--2-2-2-2-2-x-xx-1-1-1--1-1-1-1-1-x-xx-0-0-0--0-0-0-0---
-1-2-3-3-3-3--3-3-3-3-3-x-xx-2-2-2--2-2-2-2-2-x-xx-1-1-1--1-1-1-1-1-x-xx-0-0-0--0-0-0-0---

"could have stripped her down..."
----------------------------------------------------------------------------------------------------------------------------------
-----------------------------------------------------------------------------------------------------------------------------------
-----------------------------------------------------------------------------------------------------------------------------------
--8-8-8--8-8-8-8-8--------10-10-10--10-10-10-10-10--------7-7-7--7-7-7-7-7--------5-5-5--5-5-5-5-5----
--8-8-8--8-8-8-8-8-x-xx-8----8---8---8---8---8---8---8-x-xx-5-5-5--5-5-5-5-5-x-xx-3-3-3--3-3-3-3-3---
--8-8-8--8-8-8-8-8-x-xx-9----9---9---9---9---9---9---9-x-xx-5-5-5--5-5-5-5-5-x-xx-3-3-3--3-3-3-3-3---
*play (x2) 
then there is a solo part use alot of wah wah and echo on this, plus dist.
*play kinda slow*
--------------------------------------------------------9-----9-----------------------------
--9^---------9^---------------------------------9^-9---9^----9^------9^----------------
-----------------10~-10\-5~---5\-------------------------------------7^----------------   (x3)
---------------------------------------3~--------------------------------------------------
---------------------------------------------------------------------------------------------
---------------------------------------------------------------------------------------------
[ Tab from: http://www.guitartabs.cc/tabs/c/cold/strip_her_down_tab.html ]
then it is silence and the bass does stuff, then it goes back to the solo, then the first acoustic riff. then it trys alittle something like this...

-------------------------------------------------------------
------------------------------------------------------------
---------------------------------------1---------------------
--------------3---------------------------------------------
--------------------3-------------3-----3-----------------
-1-2-3--3-----3----3-4-5--3-----------3--2--4-------

then it calms down and enters this small riff...

--------------------------------------------------------------
--9-10-9-12-9-9-10-8-8-8h9p8--------------------------
--------------------------------------------------------------
-------------------------------------------------------------- (x2)
--------------------------------------------------------------
--------------------------------------------------------------

after that is gos in to alot of solos and then hit these w/ alot of power behind them

--13^-13^----13^----13^------14^--14^-----14^----14^--------------
--11^-----11^----11^----11^--12^-----12^-----12^----12^-----------
----------------------------------------------------------------------
----------------------------------------------------------------------   (x 4)
----------------------------------------------------------------------
----------------------------------------------------------------------

then follow the other riff i shown you and then there is am ending...
*clean tone for ending*

"i really love you guys..."
--7-5-4-5-7-5-4-5-7-------7-5-4-5-5h7p5---7-5-4-5-7-5-4-5-4-5-4-------4--------
-----------------------------------------------------------------------------------------------------
-----------------------------------------------------------------------------------------------------
-----------------------------------------------------------------------------------------------------  (x1)
-----------------------------------------------------------------------------------------------------
-----------------------------------------------------------------------------------------------------

Comments