Cold - Sick Of Man Chords & Tabs

 

Sick Of Man Chords & Tabs

Cold Chords & Tabs

Version: 2 Type: Tab 0 ratings
1 star 2 stars 3 stars 4 stars 5 stars
comments

Sick Of Man Tab

   
Sick Of Man
Straight C Tuning, tune down two whole steps

1=C   4=Bb
2=G   5=F
3=Eb  6=C

| -----------------------------
| -----12--------12b---------
| ---------11-----------------
| -9----------9---9b---------
| -----------------------------
| -----------------------------
  Intro/Verse

| -------------------------------------------
| --12-----13-----15--12---13--8--7----
| -------------------------------------------
| -------------------------------------------
| -------------------------------------------
| -------------------------------------------
  Chorus

| -----------------------
| -----------------------
| -16----------14------
| -----------------------
| -14----------12------
| -----------------------
Bridge   - Riff 1 strum each of these octaves
[ Tab from: http://www.guitartabs.cc/tabs/c/cold/sick_of_man_tab_ver_2.html ]
| -------------------------------------------------------------------------------------------------
| -------------------------------------------------------------------------------------------------
| -----------------------------------------------------------------------------------------------
| ----------------------------------------------------------------------------------------------
| -2-2-x-x-2-2-x-x-2--x-x-5-5-5-5-5-5-5-5-5-5-5-5-5-5---2-2-x-x-2-2-x-x-2--x-x-5-5-5-5--4-4-4-4--
| -0-0-x-x-0-0-x-x-0--x-x-3-3-3-3-3-3-3-3-3-3-3-3-3-3---0-0-x-x-0-0-x-x-0--x-x-3-3-3-3--2-2-2-2--
  Bridge  - Riff 2


====================

Cold 
Sick Of Man
From:  13 Ways to Bleed On Stage
Tabbed By: Mike Gagnon

Tuning: CGCFAD

Intro

D-12p12------
A------10^---

Verse

F------14----------------------
C--------14--------------------
G---12-----12---10-------------
C-12---------------10-10-10-12-

Chorus

A-10--11--13--10--11---------
F---------------------10--9--

Bridge

F-14-15-14-14-14-15-17-15-14-15-14-14-14-14-12-17-15-

Outro

C-0-X-X-0-X-X-0-X-X--8-8-8-8-8-8-8-8-8-
G-0-X-X-0-X-X-0-X-X--8-8-8-8-8-8-8-8-8-
C-0-X-X-0-X-X-0-X-X--8-8-8-8-8-8-8-8-8-

C-0-X-X-0-X-X-0-X-X---3-3-3-3-3--2-2-2-2---(0)-
G-0-X-X-0-X-X-0-X-X---3-3-3-3-3--2-2-2-2---(0)-
C-0-X-X-0-X-X-0-X-X---3-3-3-3-3--2-2-2-2---(0)-

It is good to be back!!!!!!!!!!!!
====
Comments