Cold - Sick Of Man Chords & Tabs

 

Sick Of Man Chords & Tabs

Cold Chords & Tabs

Version: 1 Type: Bass Tab 0 ratings
1 star 2 stars 3 stars 4 stars 5 stars
comments

Sick Of Man Bass Tab

   
Cold
"Sick Of Man" bass tab
13 Ways To Bleed On Stage
Transcribed by J. Robinson

Standard 5-String tuning

Intro/ Verse
G --------------------------------------------------------------------------|
D --------------------------------------------------------------------------|
A -----------6----6--6--6-----6--6--6-------------------5-------------------|
E ------6--8-------------6------------6-----------6--8----6----6--6--6--8---|
B ----1-----------------------------------------1---------------------------|

Chorus (I think each note should be doubled. Example being instead of doing -3- on the E 
8 times do it sixteen and so on)
[ Tab from: http://www.guitartabs.cc/tabs/c/cold/sick_of_man_btab.html ]
G ---------------------------------------------------------------------------|
D ---------------------------------------------------------------------------|
A ---------------------------------------------------------------------------|
E --3-3-3-3-3-3-3-3-4-4-4-4-6-6-6-6-3-3-3-3-3-3-3-3-4-4-4-4------------------|
B ----------------------------------------------------------4-4-3-3----------|

Bridge

G --------------------------------------------------------------------------|
D --------------------------------------------------------------------------|
A --------------------------------------------------------------------------|
E 3-3-3-3-3-3-3-3-4-4-4-4-4-4-4-4-3-3-3-3-3-3-3-3-4-4-4-4-4-4-4-4-6-6-6-6-6-|
B --------------------------------------------------------------------------|

Ending

G --------------------------------------------------------------------------|
D --------------------------------------------------------------------------|
A --------------------------------------------------------------------------|
E -----------4-4-4-4-4-4-4-4-------------4-4-4-4-3-3-3-3-{1 on last time}---|
B --1-1--1-1--------------------1-1----1-1----------------------------------|
Comments