Cold - She Said Chords & Tabs

 

She Said Chords & Tabs

Cold Chords & Tabs

Version: 1 Type: Tab 0 ratings
1 star 2 stars 3 stars 4 stars 5 stars
comments

She Said Tab

   
Band: Cold 
Song: She Said  
Tuning: Drop D one-step (C G C F A D)  
Tabed By ATS
[ Tab from: http://www.guitartabs.cc/tabs/c/cold/she_said_tab.html ]
Verse 
D|------------------- 
A|------------------- 
F|-------------------  
C|-7----8----4----3-- 
G|-------------------  
C|-7----8----4----3--  
  
Chorus 
D|--------------------------------------- 
A|--------------------------------------- 
F|---------------------------------------  
C|-5-5-5-5-------------------------------  
G|-3-3-3-3--5-5-5-5-5--6-6-6-6--3-3-3-3--  
C|----------5-5-5-5-5--6-6-6-6--3-3-3-3-- 
  
Bridge 
D|------------------------------------ 
A|------------------------------------ 
F|------------------------------------  
C|------------------------------------  
G|-0-0-0-0--7-7-7-7h8-8-8-8--3-3-3-3--  
C|-0-0-0-0--7-7-7-7h8-8-8-8--3-3-3-3-- 
Comments