Cold - She Said Chords & Tabs

 

She Said Chords & Tabs

Cold Chords & Tabs

Version: 1 Type: Bass Tab 0 ratings
1 star 2 stars 3 stars 4 stars 5 stars
comments

She Said Bass Tab

   
Song: She Said
Artist: Cold
Album: 13 Ways To Bleed On Stage
Transcribed by: "Joe Black" From The Bronx! 12-01-00

Tuning for 4 string: D-G-C-F

++++(Intro)++++(Verse 1)++++(Verse 2)+++++

F:---------------------------------------|
C:---------------------------------------|
G:--0-(0)-(0)--1~------------------------|
D:----------------------2--(2)--(2)--1~--|

++++++++++++++++++(Chorus)++++++++++++++++++
[ Tab from: http://www.guitartabs.cc/tabs/c/cold/she_said_btab.html ]
F:-----------------------------------------|
C:-----------------------------------------|
G:--3----3----3----------------------------|
D:---------------4-3-4-4-4--3--4-4-4--3/1--|

++++++++++++++(Last Verse)++++++++++++++++++


F:-----------------------------|
C:-----------------------------|
G:--3-----h5-------------1-----|
D:------------3h5-----5-----1~-|

The End!

=========================================
I may have updated this tab. The latest
version will be uploaded to my site.
http://www.geocities.com/newyorkzone
=========================================

  ____    _____
 (    `--'  .-'`                T_T_T_T_
 |{| O  O  ||||||||||||||||||||[o o o o/
 (__,--.____',                  `--`--'

Comments