Cold - Send In The Clowns Chords & Tabs

 

Send In The Clowns Chords & Tabs

Cold Chords & Tabs

Version: 1 Type: Bass Tab 0 ratings
1 star 2 stars 3 stars 4 stars 5 stars
comments

Send In The Clowns Bass Tab

tabbed by chase.punker@teenagedirtbag.com
------------------------------------------------------------------------------------
------------------------------------------------------------------------------------
------------11-11-11--11-11-11-11-11-11-11-------------------------------------------
-79999999999------------------------------10-10-10-10-10-10-10-10-10-12-10-99999999-
[ Tab from: http://www.guitartabs.cc/tabs/c/cold/send_in_the_clowns_btab.html ]
------------------------------------------------------------------------------------
------------------------------------------------------------------------------------
------------11-11-11-11-11-11-11-11-11-11-------------------------------------------
-79999999999-----------------------------10-10-10-10-10-10-10-10-10-10-9999999999---

----------------------------------------
----------------------------------------
----------------------------------------
-44-444x-000000-777766666777766666------
Comments