Cold - Same Drug Chords & Tabs

 

Same Drug Chords & Tabs

Cold Chords & Tabs

Version: 3 Type: Tab 0 ratings
1 star 2 stars 3 stars 4 stars 5 stars
comments

Same Drug Tab

   
Cold
Thirteen Ways to Bleed on Stage
Same Drug
C F Bb Eb G C
/slide  .palm mute  ^bend

Intro (Guitar 1)       Distortion/Flange
------------------------------------------------------------
------------------------------------------------------------
--12-12--12/10-10--10/9--9-9--9\10-10-10/12-12--------------
------------------------------------------------------------
------------------------------------------------------------
------------------------------------------------------------

(Guitar 2)             Distortion
------------------------------------------------------------
----13--13--13--13-13-13--13--13----------------------------
--12--12--10--10--9--9--10--12------------------------------
------------------------------------------------------------
------------------------------------------------------------
------------------------------------------------------------

Verse   (Guitar 2)     Distortion
------------------------------------------------------------
-------------------------------------------13---------------
--9-10-9-10-12-10-9-10-(3 times)-9-10-9-10---10-9-10--------
--.--.-.-.--.--.--.--.-----------.--.-.--.----.-.--.--------
------------------------------------------------------------
------------------------------------------------------------
[ Tab from: http://www.guitartabs.cc/tabs/c/cold/same_drug_tab_ver_3.html ]
Chorus  (Guitar 1)     Distortion
------------------------------------------------------------
------------------------------------------------------------
------------------------------------------------------------
--5--5--5--5-5--5--5/4--4--4--4-4--4------------------------
--3--3--3--3-3--3--3/2--2--2--2-2--2--2--2-2-4--4-4-4-5---5-
--------------------------------------0--0-0-2--2-2-2/3---3-

Pre-end Chorus (Guitar 1) Clean      
------------------------------------------------------------
------8-----------------------------------------------------
------9--------9--------------------------------------------
----9---9---9---9--9----------------------------------------
--7-------7-------7-----------------------------------------
------------------------------------------------------------

(Guitar 2)                Clean/Flange
------------------------------------------------------------
--13--------13---------13--------13---13--13----------------
----12^--12---12-----12--12--10--12-x-12--------------------
------------------------------------------------------------
------------------------------------------------------------
------------------------------------------------------------

Ending Chorus (Guitar 1)  Distortion
------------------------------------------------------------
------------------------------------------------------------
------------------------------------------------------------
--5--5--5--5-5--5--5/4--4--4--4-4--4------------------------
--3--3--3--3-3--3--3/2--2--2--2-2--2--2--2-2-4--4-4-4-5---5-
--------------------------------------0--0-0-2--2-2-2/3---3-

(Guitar 2)               Clean/Flange
------------------------------------------------------------
--13-----------13-----------13-----------13--13^------------
----12--10--12---12--10--12----12-10-12--12--12^------------
------------------------------------------------------------
------------------------------------------------------------
------------------------------------------------------------
Comments