Cold - Same Drug Chords & Tabs

 

Same Drug Chords & Tabs

Cold Chords & Tabs

Version: 2 Type: Tab 0 ratings
1 star 2 stars 3 stars 4 stars 5 stars
comments

Same Drug Tab

   
Author/Artist: Cold
Title: Same Drug
Album: 13 Ways To Bleed On Stage
Transcribed by: Carlos Acosta
Email: Systemdown17@yahoo.com

Tuning two whole steps down C F Bb Eb G C
Intro:2 guitars arranged just for one

------------------------------------------------------------------------------
----13-------------13-----------13--------------------------------------------
-12----12-12p10-10----10-10p9-9----9-999h10-10-10h12-12-----------------------
------------------------------------------------------------------------------
------------------------------------------------------------------------------
------------------------------------------------------------------------------
  Verse *=palm mute                                                           

------------------------|-----------------------------------------------------
------------------------|-----------13----------------------------------------
-9-10-9-10-12-10-9-10---|-9-10-9-10----10-9-10--------------------------------
-*-*--*-*-----*--*-*--x3|-*-*--*-*-----*--*-*---------------------------------
------------------------|-----------------------------------------------------
------------------------|-----------------------------------------------------
  Chorus                                                                      

------------------------------------------------------------------------------
------------------------------------------------------------------------------
------------------------------------------------------------------------------
-5----55-5-55-4----44-4-44----------------------------------------------------
-3----33-3-33-2----22-2-22--2----22--4-44-4/5---------------------------------
----------------------------0----00--2-22-2/3---------------------------------
  Bridge (piano arranged for guitar) guitar will later play this part anyway  
[ Tab from: http://www.guitartabs.cc/tabs/c/cold/same_drug_tab_ver_2.html ]
----------------|-------------------------------------------------------------
-----10-8-7-8---|-----10-8-7-8------------------------------------------------
---9------------|---9----------7----------------------------------------------
-9--------------|-9-----------------------------------------------------------
--------------x2|-------------------------------------------------------------
----------------|-------------------------------------------------------------
  throw a couple of these in on the bridge                                    

-10b--------------------------------------------------------------------------
------------------------------------------------------------------------------
------------------------------------------------------------------------------
------------------------------------------------------------------------------
------------------------------------------------------------------------------
------------------------------------------------------------------------------
  last chorus  guitar 2 (guitar 1 plays regular chorus)                      

-12-8-12-8-12-8---10b---------------------------------------------------------
------------------------------------------------------------------------------
------------------------------------------------------------------------------
------------------------------------------------------------------------------
------------------------------------------------------------------------------
------------------------------------------------------------------------------
  guitar 3   (same as piano part just with phase shifter)                     

------------------------------------------------------------------------------
-----10-8-7-8------10-8-7-8-----10-8-7-8--------------------------------------
---9-------------9------------9----------7------------------------------------
-9-------------9------------9-------------------------------------------------
------------------------------------------------------------------------------
------------------------------------------------------------------------------
Comments