Cold - Remedy Chords & Tabs

 

Remedy Chords & Tabs

Cold Chords & Tabs

Version: 1 Type: Tab 1 rating
1 star 2 stars 3 stars 4 stars 5 stars
comments

Remedy Tab

***REMEDY***

[INTRO]
| ------------------------------------------ |
| ------------------------------------------ |
| ------------------------------------------ |
| -7-7-7-7--2-2-2--3--3-3-3--7-7--5-5------- |
| -7-7-7-7--2-2-2--3--3-3-3--7-7--5-5------- |
| -5-5-5-5--0-0-0--1--1-1-1--5-5--3-3------- |

| ------------------------------------------ |
| ------------------------------------------ |
| ------------------------------------------ |
| -7-7-7-7--2-2-2--3--3-3-3--7-7--5--------- |
| -7-7-7-7--2-2-2--3--3-3-3--7-7--5--------- |
| -5-5-5-5--0-0-0--1--1-1-1--5-5--3--------- |

[VERSE 1.]

BASS ONLY (ARPEGGIATES POWER CHORDS ABOVE BY PLAYING THE 5 NOTES ON TOP STRING)

[PRE CHORUS]
| ------------------------------------------ |
| ------------------------------------------ |
| ------------------------------------------ |
| -7-7-7-7--2-2-2--3--3-3-3--7-7--5-5------- |
| -7-7-7-7--2-2-2--3--3-3-3--7-7--5-5------- |
| -5-5-5-5--0-0-0--1--1-1-1--5-5--3-3------- |

| ------------------------------------------ |
| ------------------------------------------ |
| ------------------------------------------ |
| -7-7-7-7--2-2-2--3--3-3-3--7-7--5--------- |
| -7-7-7-7--2-2-2--3--3-3-3--7-7--5--------- |
| -5-5-5-5--0-0-0--1--1-1-1--5-5--3--------- |
[ Tab from: http://www.guitartabs.cc/tabs/c/cold/remedy_tab.html ]
[CHORUS GTR.1]
| -------------------------------------------------------------------------- |
| -------------------------------------------------------------------------- |
| -------------------------------------------------------------------------- |
| -7-7-7-7-7-7-7-7--5-5-5-5-5-5-5-5--3-3-3-3-3-3-3-3--2-2-2-2-2-2-2-2------- |
| -7-7-7-7-7-7-7-7--5-5-5-5-5-5-5-5--3-3-3-3-3-3-3-3--2-2-2-2-2-2-2-2------- |
| -5-5-5-5-5-5-5-5--3-3-3-3-3-3-3-3--1-1-1-1-1-1-1-1--0-0-0-0-0-0-0-0------- |

| -------------------------------------------------------------------------- |
| -------------------------------------------------------------------------- |
| -------------------------------------------------------------------------- |
| -7-7-7-7-7-7-7-7--5-5-5-5-5-5-5-5--8-8-8-8-8-8-8-8--3-3-3-3-3-3-3-3------- |
| -7-7-7-7-7-7-7-7--5-5-5-5-5-5-5-5--8-8-8-8-8-8-8-8--3-3-3-3-3-3-3-3------- |
| -5-5-5-5-5-5-5-5--3-3-3-3-3-3-3-3--6-6-6-6-6-6-6-6--1-1-1-1-1-1-1-1------- |

[VERSE 2]
| --------------------------------------------------------------------------- |
| -5-5-5-5-5-5-5-5-5-5^-5-5-5-5-5-5-5-5-5-5-5^-5-5-5-5-5-5-5-5-5-5^\-1~------ |
| --------------------------------------------------------------------------- |
| --------------------------------------------------------------------------- |
| --------------------------------------------------------------------------- |
| --------------------------------------------------------------------------- |

[SOLO]
| --19~\--17-----|----------------------------------------------------------- |
| ---------17~---|-20\---17---/20\---17----21-17-18-20--21-17-18~------------ |
| ---------------|--------17~---------17~------------------------------------ |
| ---------------|----------------------------------------------------------- |
| ---------------|----------------------------------------------------------- |
| ---------------|----------------------------------------------------------- |

[OUTRO]
| ------------------------------------------ |
| ------------------------------------------ |
| ------------------------------------------ |
| -7-7-7-7--2-2-2--3--3-3-3--7-7--5--------- |
| -7-7-7-7--2-2-2--3--3-3-3--7-7--5--------- |
| -5-5-5-5--0-0-0--1--1-1-1--5-5--3--------- |

Comments