Cold - Rain Song Chords & Tabs

 

Rain Song Chords & Tabs

Cold Chords & Tabs

Version: 1 Type: Tab 0 ratings
1 star 2 stars 3 stars 4 stars 5 stars
comments

Rain Song Tab

   
-------------------------------------------------------------------------------
			     Rain Song - Cold
-------------------------------------------------------------------------------

Tabbed by: Jan Van Gulck
Email:     janvangulck@hotmail.com

Tuning: E one step down (D A D G B E)


Intro:


   X X X  X X X  X X X  X X X
e|-----------------------------|
B|-----------------------------|
G|-2-2-2--2-2-2--2-2-2--2-2-2--|
D|-----------------------------|
A|-----------------------------|
D|-----------------------------|

e|--------------------------------------------|
B|-6----------------------6-------------------|
G|---3-2-3-----3-2---2-3----3-2-3-3/5-3-2-2-2-|
D|---------3-------3--------------------------|
A|-----------3--------------------------------|
D|--------------------------------------------|




Verse:

e|----------------------------------------------|
B|----------------------------------------------|
G|-2/3----0----3\2---------2/3--0--3-3/5--5--2--|
D|----------------------3-----------------------|
A|----------------------------------------------|
D|----------------------------------------------|


e|-------------------------------------------------|
B|------------------------6------------------------|
G|-2/3----0----3\2----------3-2-3-3/5-3-2-2-2-2----|
D|----------------------3--------------------------|
A|-------------------------------------------------|
D|-------------------------------------------------|



Chorus:

2X

e|----------------------------------------------------------------------|
B|----------------------------------------------------------------------|
G|----------------------------------------------------------------------|
D|-1-1-1-1-1-1-1-1--0-0-0-0-0-0-0-0--5-5-5-5-5-5-5-5--3-3-3-3-3-3-3-3---|
A|-1-1-1-1-1-1-1-1--0-0-0-0-0-0-0-0--5-5-5-5-5-5-5-5--3-3-3-3-3-3-3-3---|
D|-1-1-1-1-1-1-1-1--0-0-0-0-0-0-0-0--5-5-5-5-5-5-5-5--3-3-3-3-3-3-3-3---|


Pre Verse:

e|--------------------------------------------|
B|-6----------------------6-------------------|
G|---3-2-3-----3-2---2-3----3-2-3-3/5-3-2-2-2-|
D|---------3-------3--------------------------|
A|-----------3--------------------------------|
D|--------------------------------------------|


Verse:

2X

e|---3-----------------------------3------------------------------|
B|-3----------3------------------3-----------3--------------------|
G|-----0-0------3-3-2-3-5-3-2-3------0-0-------3-3-2-3-5-3-2-3----|
D|----------------------------------------------------------------|
A|----------------------------------------------------------------|
D|----------------------------------------------------------------|


2X

e|--------------------------------------------|
B|-6----------------------6-------------------|
G|---3-2-3-----3-2---2-3----3-2-3-3/5-3-2-2-2-|
D|---------3-------3--------------------------|
A|-----------3--------------------------------|
D|--------------------------------------------|



Chorus:

4X
[ Tab from: http://www.guitartabs.cc/tabs/c/cold/rain_song_tab.html ]
e|----------------------------------------------------------------------|
B|----------------------------------------------------------------------|
G|----------------------------------------------------------------------|
D|-1-1-1-1-1-1-1-1--0-0-0-0-0-0-0-0--5-5-5-5-5-5-5-5--3-3-3-3-3-3-3-3---|
A|-1-1-1-1-1-1-1-1--0-0-0-0-0-0-0-0--5-5-5-5-5-5-5-5--3-3-3-3-3-3-3-3---|
D|-1-1-1-1-1-1-1-1--0-0-0-0-0-0-0-0--5-5-5-5-5-5-5-5--3-3-3-3-3-3-3-3---|



Bridge

Guitar 1

3X

e|-----------------------------------------------------------------------------|
B|-----------------------------------------------------------------------------|
G|-------------------------------------------7-7-7-7-7-7-7-7--8-8-8-8-8-8-8-8--|
D|-10-10-10-10-10-10-10-10--8-8-8-8-8-8-8-8--7-7-7-7-7-7-7-7--8-8-8-8-8-8-8-8--|
A|-10-10-10-10-10-10-10-10--8-8-8-8-8-8-8-8--5-5-5-5-5-5-5-5--6-6-6-6-6-6-6-6--|
D|-10-10-10-10-10-10-10-10--8-8-8-8-8-8-8-8------------------------------------|



Guitar 2

2X

e|-------------------------------------------------------------------|
B|----------------------------------3-3-3-3-3-3-3-3-4-4-4-4-4-4-4-4--|
G|--5-5-5-5-5-5-5-5-3-3-3-3-3-3-3-3----------------------------------|
D|-------------------------------------------------------------------|
A|-------------------------------------------------------------------|
D|-------------------------------------------------------------------|

then

e|-------------------------------------------------------------------|
B|--------5-5-5---------------------3-3-3-3-3-3-3-3-4-4-4-4-4-4-4-4--|
G|--5-5-5-------5-5-3-3-3-3-3-3-3-3----------------------------------|
D|-------------------------------------------------------------------|
A|-------------------------------------------------------------------|
D|-------------------------------------------------------------------|




Chorus:

4X

e|----------------------------------------------------------------------|
B|----------------------------------------------------------------------|
G|----------------------------------------------------------------------|
D|-1-1-1-1-1-1-1-1--0-0-0-0-0-0-0-0--5-5-5-5-5-5-5-5--3-3-3-3-3-3-3-3---|
A|-1-1-1-1-1-1-1-1--0-0-0-0-0-0-0-0--5-5-5-5-5-5-5-5--3-3-3-3-3-3-3-3---|
D|-1-1-1-1-1-1-1-1--0-0-0-0-0-0-0-0--5-5-5-5-5-5-5-5--3-3-3-3-3-3-3-3---|



Outro:

fade out

e|----|
B|----|
G|----|
D|-1--|
A|-1--|
D|-1--|


-------------------------------------------------------------------------------
| /  slide up
| \  slide down
| h  hammer-on
| p  pull-off
| ~  vibrato
| +  harmonic
| x  Mute note

===============================================================================


Lyrics



INTRO

VERSE

When it rains I dont mind
Let me stand here all night
Did she take her whole life
Let me know she's alright

CHORUS

And every time it rains
I feel her holding me
And everytime it rains
Are the angels crying

PRE VERSE

VERSE

I'll stay strong, I'll be fine
Carry on with my life
I still stare at the sky
Pray for rain, all the time
Why'd you run? Did you hide
Why'd you leave, no good bye
When the clouds, take the sky
Does a soul, give you life?

CHORUS

And every time it rains
I feel her holding me
And everytime it rains
Are the angels crying
And every time it rains
I feel her holding me
And everytime it rains
All the angels cry for me

BRIDGE

I'll never be the same
I'll never be the same
be the same
be the same
be the same

CHORUS

And every time it rains
I feel her holding me
And everytime it rains
Are the angels crying
And every time it rains
I feel her holding me
And everytime it rains
Are the angels crying 

OUTRO





That's it! I hope you'll enjoy it ;)
Comments