Cold - Rain Song Acoustic Chords & Tabs

 

Rain Song Acoustic Chords & Tabs

Cold Chords & Tabs

Version: 1 Type: Tab 0 ratings
1 star 2 stars 3 stars 4 stars 5 stars
comments

Rain Song Acoustic Tab

Artist : Cold
Song : Rain Song acoustic
Album : Year of the Spider, Special Edition DVD
Tuning : Tuned 2 steps down, (low to high) C F Bb Eb G C
Transcribed by : Nick (CobraSting901@aol.com)

Intro/Verse chords *listen to song to get rhythm for chords*
--------------
--------------
--------------
--9--5--7--4--
--9--5--7--4--
--7--3--5--2--

Chorus
--------------
--------------
--------------
--5--4--9--7--
--5--4--9--7--
--3--2--7--5--
[ Tab from: http://www.guitartabs.cc/tabs/c/cold/rain_song_acoustic_tab.html ]
Bridge *time in song -> about 2:01*
----------------
----------------
----------------
--9--7--10--12--
--7--5---9--10--
----------------

Solo Riff
--3---------------------3-----------------------
----3-2-3-------2-2-2-3---3-2-3-3-3-3s5-3-2-2~--
----------2-2-2---------------------------------
------------------------------------------------
------------------------------------------------
------------------------------------------------

Outro
--------------
--------------
--------------
---5----------
-----5--------
-3-----5-0-0--

Intro/Verse - 6x
Chorus - 2x
Solo riff - 1x
Intro/Verse - 4x
Solo riff - 2x
Chorus - 2x
Bridge - 3x
Chorus - 4x
Outro - 1x
Comments