Cold - Outerspace Chords & Tabs

 

Outerspace Chords & Tabs

Cold Chords & Tabs

Version: 1 Type: Tab 0 ratings
1 star 2 stars 3 stars 4 stars 5 stars
comments

Outerspace Tab

   
Outerspace
Straight C Tuning, tune down two whole steps

1=C   4=Bb
2=G   5=F
3=Eb  6=C

| ----10-11-10-----10-11-10-13-11-10-11---
| --8--------------8------------------------------
| -------------------------------------------------
| -------------------------------------------------
| -------------------------------------------------
| -------------------------------------------------
  Intro/Verse
[ Tab from: http://www.guitartabs.cc/tabs/c/cold/outerspace_tab.html ]
| ----------------------------------------------------------------------------------
| ----------------------------------------------------------------------------------
| ----------------------------------------------------------------------------------
| -9-9-9-9-9-9-9-9-7-7-7-7-7-7-7-7-5-5-5-5-5-5-5-5-4-4-4-4-4-4-4-4-----
| -7-7-7-7-7-7-7-7-5-5-5-5-5-5-5-5-3-3-3-3-3-3-3-3-2-2-2-2-2-2-2-2-----
| ----------------------------------------------------------------------------------
  Chorus

| -------------------------------------
| -------------------------------------
| -------------------------------------
| -----9--10---------9---------------
| -9-------------10---------10--9---
| -------------------------------------
  Bridge

Comments