Cold - No One Chords & Tabs

 

No One Chords & Tabs

Cold Chords & Tabs

Version: 2 Type: Bass Tab 0 ratings
1 star 2 stars 3 stars 4 stars 5 stars
comments

No One Bass Tab

   
Song: No One
Artist: Cold
Album: 13 Ways To Bleed On Stage
Transcribed by: "Joe Black" From The Bronx!
On: 02-12-01

Tuning For 4 Strings: D-G-C-F

      / = slide up
      \ = slide down
      h = hammer on
     (0)= land on note without striking.

**Begin

Listen to the song for the timing and the correct note
count. I estimated.


Part A  4 times

F:---------------------------------------------
C:-5--5-5-5-5-5-5--5--8--5-5-5-----------------
G:-------------------------------6--6--8--6--6-
D:---------------------------------------------

-------------------|
-------------------|
--5-5-5--8--5-8-5--|
-------------------|



=========================PART B============================

Part B  2 times
F:-----------
C:-----------
G:-3-3-3-3-3-
D:-----------\  continued below

-------------------------------------------------------|
-------------------------------------------------------|
-------------------------------------------------------|
\(10)-8-h10-8-h10-8-6-6-6-8-6-6-0\h5-5-5-5-5-h6-5-h6-5-|

OR THIS VARIATION. LISTEN FOR IT.
[ Tab from: http://www.guitartabs.cc/tabs/c/cold/no_one_btab_ver_2.html ]
F:-------------
C:-------------
G:-3-3-3-3-3-3\
D:-------------  continued below

------------------------------------------------------------|
------------------------------------------------------------|
\(17)-15-h17-15-h17-15--------------------------------------|
-------------------------6-6-6-8-6-6-0\h5-5-5-5-5-h6-5-h6-5-|


======================END PART B============================



Part A  5 times

Part B  2 times
But at the end of the last one don't:   h7-(5)-7-(5)-|


Part C   5 times
F:-0-0-0-0-0-0-0-0-0-0-0-0-0-0-0-0------------------------------------|
C:---------------------------------1-1-1-1-1-1-1--0-0-0--3-3-3-0-0-0--|
G:--------------------------------------------------------------------|
D:--------------------------------------------------------------------|

Part B  4 times


=========================================
I may have updated this tab. The latest
version will be uploaded to my site.
http://www.geocities.com/newyorkzone
=========================================
  ____    _____
 (    `--'  .-'`                T_T_T_T_
 |{| O  O  ||||||||||||||||||||[o o o o/
 (__,--.____',                  `--`--'
Comments