Cold - Kill The Music Industry Chords & Tabs

 

Kill The Music Industry Chords & Tabs

Cold Chords & Tabs

Version: 1 Type: Bass Tab 0 ratings
1 star 2 stars 3 stars 4 stars 5 stars
comments

Kill The Music Industry Bass Tab

Cold: Year of the Spider: Kill the Music Industry

This song is really easy. Its just a lil strange on the timing, but any
decent bassist can pick that up. ENJOY! :)
Standard Tuning

0:15         Verse
G|-------------|--------------|
D|-------------|--------------|
A|-------------|--------------|8x
E|2-2--0-0--4-0|-0-0--4-4--1-1|
[ Tab from: http://www.guitartabs.cc/tabs/c/cold/kill_the_music_industry_btab.html ]
0:41                          Chorus
G|---------------|---------------|---------------|---------------|
D|---------------|---------------|---------------|---------------|
A|---------------|4-4-4-4-4-4-4-4|0-0-0-0-0-0-0-0|---------------|2x
E|3-3-3-3-3-3-3-3|---------------|---------------|3-3-3-3-3-3-3-3|

0:54 Verse 10x

1:27 Chorus 4x

1:47                           Bridge
G|---------------|---------------|---------------|---------------|
D|---------------|---------------|---------------|---------------|
A|---------------|4-4-4-4-4-4-4-4|0-0-0-0-0-0-0-0|---------------|2x
E|3-3-3-3-3-3-3-3|---------------|---------------|3-3-3-3-3-3-3-3|

2:14 Chorus 4x

2:40 Verse 4x (drops out)
Comments