Cold - Insane Chords & Tabs

 

Insane Chords & Tabs

Cold Chords & Tabs

Version: 1 Type: Tab 0 ratings
1 star 2 stars 3 stars 4 stars 5 stars
comments

Insane Tab

Transcribed by - Michael Doyle 
Contact me at goawey@hotmail.com
This tab belongs to http://www.iol.ie/~cold

tuning - C F Bb Eb G C (two whole steps/4 frets down)

---------------------------------------------------------------


Insane

Intro/Verse

gtr1
|--------------------------|----------------------------|
|--play this bar 3x--------|----------------------------|
|--11-11-11-12-12-12-12-12-|-11-11-11-12/15\12-10h12p10-|
|--------------------------|----------------------------|
|--------------------------|----------------------------|
|--------------------------|----------------------------|

kelly also changes it sometimes to this:

|--------------------------|----------------------------|
|--play this bar 3x--------|----------------------------|
|--11-11-11-12-12-12-12-12-|-11-11-11-12-12/14-11h12p11-|
|--------------------------|----------------------------|
|--------------------------|----------------------------|
|--------------------------|----------------------------|

gtr2
 pm............................................
|-----------------------|----------------------|
|--play this bar 3x-----|----------------------|
|-----------------------|----------------------|
|-----------------------|----------------------|
|--4-4-4-5-5-5-5-5------|--2--4-4-4-5-5-5-5-5--|
|--2-2-2-3-3-3-3-3------|--0--2-2-2-3-3-3-3-3--|


chorus
[ Tab from: http://www.guitartabs.cc/tabs/c/cold/insane_tab.html ]
|-------------------------------------|---------------------------|
|-------------------------------------|---------------------------|
|-------------------------------------|---------------------------|
|-----------10--------------10--------|---------9--------------9--|
|--10-10-10-10--10-10-10-10-10-10-10--|--9-9-9--9--9-9--9-9-9--9--|
|--8--8--8--8---8--8--8--8--8--8--8---|--7-7-7--7--7-7--7-7-7--7--|

|----------------------------|
|----------------------------|
|----------------------------|
|----------7--------------7--|
|--7-7-7---7--7-7--7-7-7--7--|
|--5-5-5---5--5-5--5-5-5--5--|

bridge

gtr1

|-----------------------------|----------------17~/-------|
|------18^(20)----------------|---------------------------|
|-------------^20r(18)--------|---------------------------|
|-----------------------------|---------------------------|
|-------repeat-this-----------|--feedback-then------------|
|-----------------------------|---------------------------|

gtr2
pm........................................................
|----------------------------|---------------------------|
|----------------------------|---------------------------|
|----------------------------|---------------------------|
|----------------------------|---------------------------|
|--5-5-5-5-5-5-5-5-5-5-5-5---|--2-2-2-2-2-2-2-2-2-2-2-2--|
|--3-3-3-3-3-3-3-3-3-3-3-3---|--0-0-0-0-0-0-0-0-0-0-0-0--|

Comments