Cold - Give Chords & Tabs

 

Give Chords & Tabs

Cold Chords & Tabs

Version: 1 Type: Tab 0 ratings
1 star 2 stars 3 stars 4 stars 5 stars
comments

Give Tab

Transcribed by - Michael Doyle 
Contact me at goawey@hotmail.com
This tab belongs to http://www.iol.ie/~cold

tuning - C F Bb Eb G C (two whole steps/4 frets down)

---------------------------------------------------------------

Give

Intro

Gtr 1
|---------------------------------|
|---------------------------------|
|---------------------------------|
|---------5-5-5-5-----------------|
|-2-2-2-2-3-3-3-3-5-5-5-5-3-3-3-3-|
|-0-0-0-0---------3-3-3-3-1-1-1-1-|

Gtr 1
|-----------------------------------|
|-----------------------------------|
|-----------------------------------|
|---------5-5-5-5-------------------|
|-2-2-2-2-3-3-3-3-5-5-5-5-3-22-3-22-|
|-0-0-0-0---------3-3-3-3-1-00-1-00-|
pm                          ..   ..  

Gtr 1
|---------------------------------|
|---------------------------------|
|---------------------------------|
|---------5-5-5-5-----------------|
|-2-2-2-2-3-3-3-3-5-5-5-5-3-3-3-3-|
|-0-0-0-0---------3-3-3-3-1-1-1-1-|


Gtr 2
|---------------------------------|
|---------13~---------------------|
|--9~-------------12~-------10~---|Delay
|---------------------------------|
|---------------------------------|
|---------------------------------|


Gtr 1
|-----------------------------------|
|-----------------------------------|
|-----------------------------------|
|---------5-5-5-5-------------------|
|-2-2-2-2-3-3-3-3-5-5-5-5-3-22-3-22-|
|-0-0-0-0---------3-3-3-3-1-00-1-00-|
pm                          ..   ..  

Gtr 2
|-----------------------------------|
|---------13~-----------------------|
|--9~-------------12~-------10~-----|Delay
|-----------------------------------|
|-----------------------------------|
|-----------------------------------|


Pre-Chorus

|---------------------------------|
|---------------------------------|
|---------------------------------|
|---------5-5-5-5-----------------|
|-2-2-2-2-3-3-3-3-5-5-5-5-3-3-3-3-|
|-0-0-0-0---------3-3-3-3-1-1-1-1-|

|-----------------------------------|
|-----------------------------------|
|-----------------------------------|
|---------5-5-5-5-------------------|
|-2-2-2-2-3-3-3-3-5-5-5-5-3-22-3-22-|
|-0-0-0-0---------3-3-3-3-1-00-1-00-|
pm                          ..   ..  

|---------------------------------|
|---------------------------------|
|---------------------------------|
|---------5-5-5-5-----------------|
|-2-2-2-2-3-3-3-3-5-5-5-5-3-3-3-3-|
|-0-0-0-0---------3-3-3-3-1-1-1-1-|

|-----------------------------------|
|-----------------------------------|
|-----------------------------------|
|---------5-5-5-5-------------------|
|-2-2-2-2-3-3-3-3-5-5-5-5-3-22-3-22-|
|-0-0-0-0---------3-3-3-3-1-00-1-00-|
pm                          ..   ..  


Chorus 1
"I don't love you........
|------------------|-----------------|-----------------|-----------------|
|------------------|-----------------|-----------------|-----------------|
|------------------|-----------------|-----------------|-----------------|
|--9-9-9-9-9-9-9-9-|-7-7-7-7-7-7-7-7-|-----------------|-----------------|
|--7-7-7-7-7-7-7-7-|-5-5-5-5-5-5-5-5-|-3-3-3-3-3-3-3-3-|-5-5-5-5-5-5-5-5-|
|------------------|-----------------|-1-1-1-1-1-1-1-1-|-3-3-3-3-3-3-3-3-|

|------------------|-----------------|-----------------|-----------------|
|------------------|-----------------|-----------------|-----------------|
|------------------|-----------------|-----------------|-----------------|
|--9-9-9-9-9-9-9-9-|-7-7-7-7-7-7-7-7-|-----------------|-----------------|
|--7-7-7-7-7-7-7-7-|-5-5-5-5-5-5-5-5-|-3-3-3-3-3-3-3-3-|-5-5-5-5-5-5-5-5-|
|------------------|-----------------|-1-1-1-1-1-1-1-1-|-3-3-3-3-3-3-3-3-|

|---------------------------------|
|---------------------------------|
|---------------------------------|
|---------5-5-5-5-----------------|
|-2-2-2-2-3-3-3-3-5-5-5-5-3-3-3-3-|
|-0-0-0-0---------3-3-3-3-1-1-1-1-|

|-----------------------------------|
|-----------------------------------|
|-----------------------------------|
|---------5-5-5-5-------------------|
|-2-2-2-2-3-3-3-3-5-5-5-5-3-22-3-22-|
|-0-0-0-0---------3-3-3-3-1-00-1-00-|
pm                          ..   ..  

Verse 2
"I can't control you....
|-------------------------------------|
|---------13~-------------------------|
|--9~-------------12~-------10~-------| Quiet
|-------------------------------------|
|-------------------------------------|
|-------------------------------------|

"You silly freak...
|-------------------------------------|
|---------13~-------------------------|
|--9~-------------12~-------10~-------|
|-------------------------------------|
|-------------------------------------|
|-------------------------------------|


Chorus 2
Pre-Chorus
Gtr 1
|---------------------------------|
|---------------------------------|
|---------------------------------|
|---------5-5-5-5-----------------|
|-2-2-2-2-3-3-3-3-5-5-5-5-3-3-3-3-|
|-0-0-0-0---------3-3-3-3-1-1-1-1-|


Gtr 2
|---------20--------------------------|
|--17-------------20------18----------|Play Quiet
|-------------------------------------|Delay
|-------------------------------------|
|-------------------------------------|
|-------------------------------------|

Gtr 1
|-----------------------------------|
|-----------------------------------|
|-----------------------------------|
|---------5-5-5-5-------------------|
|-2-2-2-2-3-3-3-3-5-5-5-5-3-22-3-22-|
|-0-0-0-0---------3-3-3-3-1-00-1-00-|
pm                          ..   ..  

Gtr 2
|---------20--------------------------|
|--17-------------20------18----------|
|-------------------------------------|
|-------------------------------------|
|-------------------------------------|
|-------------------------------------|

Gtr 1
|---------------------------------|
|---------------------------------|
|---------------------------------|
|---------5-5-5-5-----------------|
|-2-2-2-2-3-3-3-3-5-5-5-5-3-3-3-3-|
|-0-0-0-0---------3-3-3-3-1-1-1-1-|


Gtr 2
|---------20--------------------------|
|--17-------------20------18----------|
|-------------------------------------|
|-------------------------------------|
|-------------------------------------|
|-------------------------------------|

Gtr 1
|-----------------------------------|
|-----------------------------------|
|-----------------------------------|
|---------5-5-5-5-------------------|
|-2-2-2-2-3-3-3-3-5-5-5-5-3-22-3-22-|
|-0-0-0-0---------3-3-3-3-1-00-1-00-|
pm                          ..   ..  
[ Tab from: http://www.guitartabs.cc/tabs/c/cold/give_tab.html ]
Gtr 2
|---------20--------------------------|
|--17-------------20------18----------|
|-------------------------------------|
|-------------------------------------|
|-------------------------------------|
|-------------------------------------|

Chorus 2
"I don't love you........
|------------------|-----------------|-----------------|-----------------|
|------------------|-----------------|-----------------|-----------------|
|------------------|-----------------|-----------------|-----------------|
|--9-9-9-9-9-9-9-9-|-7-7-7-7-7-7-7-7-|-----------------|-----------------|
|--7-7-7-7-7-7-7-7-|-5-5-5-5-5-5-5-5-|-3-3-3-3-3-3-3-3-|-5-5-5-5-5-5-5-5-|
|------------------|-----------------|-1-1-1-1-1-1-1-1-|-3-3-3-3-3-3-3-3-|

|------------------|-----------------|-----------------|-----------------|
|------------------|-----------------|-----------------|-----------------|
|------------------|-----------------|-----------------|-----------------|
|--9-9-9-9-9-9-9-9-|-7-7-7-7-7-7-7-7-|-----------------|-----------------|
|--7-7-7-7-7-7-7-7-|-5-5-5-5-5-5-5-5-|-3-3-3-3-3-3-3-3-|-5-5-5-5-5-5-5-5-|
|------------------|-----------------|-1-1-1-1-1-1-1-1-|-3-3-3-3-3-3-3-3-|

|------------------|-----------------|-----------------|-----------------|
|------------------|-----------------|-----------------|-----------------|
|------------------|-----------------|-----------------|-----------------|
|--9-9-9-9-9-9-9-9-|-7-7-7-7-7-7-7-7-|-----------------|-----------------|
|--7-7-7-7-7-7-7-7-|-5-5-5-5-5-5-5-5-|-3-3-3-3-3-3-3-3-|-5-5-5-5-5-5-5-5-|
|------------------|-----------------|-1-1-1-1-1-1-1-1-|-3-3-3-3-3-3-3-3-|

|------------------|-----------------|-----------------|-----------------|
|------------------|-----------------|-----------------|-----------------|
|------------------|-----------------|-----------------|-----------------|
|--9-9-9-9-9-9-9-9-|-7-7-7-7-7-7-7-7-|-----------------|-----------------|
|--7-7-7-7-7-7-7-7-|-5-5-5-5-5-5-5-5-|-3-3-3-3-3-3-3-3-|-5-5-5-5-5-5-5-5-|
|------------------|-----------------|-1-1-1-1-1-1-1-1-|-3-3-3-3-3-3-3-3-|


Bridge
Gtr 1
 PM............................................................
|--------|------------|------------|------------|-------------|
|--------|------------|------------|------------|-------------|
|--------|------------|------------|------------|-------------|
|-22-2-2-|------------|------------|-----2-2--2-|--2--2-22-22-|
|-00-0-0-|-22-5-5-2-5-|-22-3-3-2-3-|-2-2-0-0-20-|-20-20-00-00-|
|--------|-00-3-3-0-3-|-00-1-1-0-1-|-0-0-----0--|-0--0--------|


Gtr 1
 PM............................................................
|--------|------------|------------|------------|-------------|
|--------|------------|------------|------------|-------------|
|--------|------------|------------|------------|-------------|
|-22-2-2-|------------|------------|-----2-2--2-|--2--2-22-22-|
|-00-0-0-|-22-5-5-2-5-|-22-3-3-2-3-|-2-2-0-0-20-|-20-20-00-00-|
|--------|-00-3-3-0-3-|-00-1-1-0-1-|-0-0-----0--|-0--0--------|

Gtr 2
|------20--------------------20-------------------------------|
|--17------20---18-------17------20----18---17----------------|
|-------------------------------------------------------------|
|-------------------------------------------------------------|
|-------------------------------------------------------------|
|-------------------------------------------------------------|

|--------------------------------|
|--------------------------------|
|--------------------------------|
|------/5------------------------|
|-2-2--/3--5-\-3-----------------|
|-0-0------3-\-1-----------------|


Chorus 3
"I don't love you........
|------------------|-----------------|-----------------|-----------------|
|------------------|-----------------|-----------------|-----------------|
|------------------|-----------------|-----------------|-----------------|
|--9-9-9-9-9-9-9-9-|-7-7-7-7-7-7-7-7-|-----------------|-----------------|
|--7-7-7-7-7-7-7-7-|-5-5-5-5-5-5-5-5-|-3-3-3-3-3-3-3-3-|-5-5-5-5-5-5-5-5-|
|------------------|-----------------|-1-1-1-1-1-1-1-1-|-3-3-3-3-3-3-3-3-|

|------------------|-----------------|-----------------|-----------------|
|------------------|-----------------|-----------------|-----------------|
|------------------|-----------------|-----------------|-----------------|
|--9-9-9-9-9-9-9-9-|-7-7-7-7-7-7-7-7-|-----------------|-----------------|
|--7-7-7-7-7-7-7-7-|-5-5-5-5-5-5-5-5-|-3-3-3-3-3-3-3-3-|-5-5-5-5-5-5-5-5-|
|------------------|-----------------|-1-1-1-1-1-1-1-1-|-3-3-3-3-3-3-3-3-|

|------------------|-----------------|-----------------|-----------------|
|------------------|-----------------|-----------------|-----------------|
|------------------|-----------------|-----------------|-----------------|
|--9-9-9-9-9-9-9-9-|-7-7-7-7-7-7-7-7-|-----------------|-----------------|
|--7-7-7-7-7-7-7-7-|-5-5-5-5-5-5-5-5-|-3-3-3-3-3-3-3-3-|-5-5-5-5-5-5-5-5-|
|------------------|-----------------|-1-1-1-1-1-1-1-1-|-3-3-3-3-3-3-3-3-|

|------------------|-----------------|-----------------|-----------------|
|------------------|-----------------|-----------------|-----------------|
|------------------|-----------------|-----------------|-----------------|
|--9-9-9-9-9-9-9-9-|-7-7-7-7-7-7-7-7-|-----------------|-----------------|
|--7-7-7-7-7-7-7-7-|-5-5-5-5-5-5-5-5-|-3-3-3-3-3-3-3-3-|-5-5-5-5-5-5-5-5-|
|------------------|-----------------|-1-1-1-1-1-1-1-1-|-3-3-3-3-3-3-3-3-|

Outro

|----------------------|----------------------|
|----------------------|----------------------|
|----------------------|----------------------|
|-2-2--2----2-2-2--2-2-|----------------------|
|-0-0--0--2-0-0-0--0-0-|-5-5--5--2-5-5-5--5-5-|
|---------0------------|-3-3--3--0-3-3-3--3-3-|

|----------------------|----------------------|
|----------------------|----------------------|
|----------------------|----------------------|
|----------------------|----------------------|
|-3-3--3--2-3-3-3--3-3-|-5-5--5--2-5-5-5--5-5-|
|-1-1--1--0-1-1-1--1-1-|-3-3--3--0-3-3-3--3-3-|

|----------------------|----------------------|
|----------------------|----------------------|
|----------------------|----------------------|
|-2-2--2----2-2-2--2-2-|----------------------|
|-0-0--0--2-0-0-0--0-0-|-5-5--5--2-5-5-5--5-5-|
|---------0------------|-3-3--3--0-3-3-3--3-3-|

|----------------------|----------------------|
|----------------------|----------------------|
|----------------------|----------------------|
|----------------------|----------------------|
|-3-3--3--2-3-3-3--3-3-|-5-5--5--2-5-5-5--5-5-|
|-1-1--1--0-1-1-1--1-1-|-3-3--3--0-3-3-3--3-3-|

|-------|
|-------|
|-------|
|---2---|
|---0---|
|-------|

Comments