Cold - Give Chords & Tabs

 

Give Chords & Tabs

Cold Chords & Tabs

Version: 2 Type: Bass Tab 0 ratings
1 star 2 stars 3 stars 4 stars 5 stars
comments

Give Bass Tab

   
Cold - Give
Tabbed By: Joey G.
EMail: SkaPunkMetal182@aol.com

Tuning: E B F C

[ Tab from: http://www.guitartabs.cc/tabs/c/cold/give_btab_ver_2.html ]
Verse:
E-------------------------------
B-------------------------------
F--------3-3-3-3----------------
C-0-0-0-0-------3-3-3-3--1-1-1-1


Chorus:
E---------------------------------------------
B---------------------------------------------
F-5-5-5-5--5-5-5-5--3-3-3-3-------------------
C---------------------------1-1--1-1--3-3--3-3

(Listen To The Song To Find Out When To Change and Repeat)
Comments