Cold - Give Chords & Tabs

 

Give Chords & Tabs

Cold Chords & Tabs

Version: 1 Type: Bass Tab 0 ratings
1 star 2 stars 3 stars 4 stars 5 stars
comments

Give Bass Tab

   
===================================================================
	Band:   Cold
	Song:   Give
	Album:  Cold
	Author: Obsidian (creatorofsong@hotmail.com)
	Tuning: C, F, Bb, Eb
	Date:   September 28, 2001
	Notes:  Probably the easiest song on the album. All notes 
		are straight eighths.
===================================================================
[ Tab from: http://www.guitartabs.cc/tabs/c/cold/give_btab.html ]
Verse:
Eb|-------------------|-------------------|
Bb|-------------------|-------------------|
F |----------3-3-3-3--|-------------------|
C |-0-0-0-0-----------|-3-3-3-3--1-1-1-1--|

Chorus:

Eb|-------------------|-------------------|----------|-----------|
Bb|-------------------|-------------------|----------|-----------|
F |-5-5-5-5--5-5-5-5--|-3-3-3-3--3-3-3-3--|----------|-----------|
C |-------------------|-------------------|-1-1--1-1-|-3-3--3-3--|

"Can't imagine..."
Comments