Cold - Ghost In Here Chords & Tabs

 

Ghost In Here Chords & Tabs

Cold Chords & Tabs

Version: 1 Type: Tab 0 ratings
1 star 2 stars 3 stars 4 stars 5 stars
comments

Ghost In Here Tab

Band: Cold
Song: Ghost In Here
Cd  : Demo
Tabbed By: Tim Barr
Tuning: Straight C Tuning, tune down two whole steps

Intro 1/Verse

Guitar 1
|---------------------------------------------------------------------|
|---------------------------------------------------------------------|
|---------------------------------------------------------------------|
|---------------------------------------------------------------------|
|---------------------------------------------------------------------|
|2-2-2-2---5-5-5-5-5-5-5---3-3-3-3---6-6-6-6-6-6----------------------|

Intro 2

Guitar 1
|---------------------------------------------------------------------|
|---------------------------------------------------------------------|
|---------------------------------------------------------------------|
|-----------5-5-5-5-5-5-----------7-7-7-7-7-7-------------------------|
|--2-2-2-2--5-5-5-5-5-5--2-2-2-2--7-7-7-7-7-7-------------------------|
|--0-0-0-0--3-3-3-3-3-3--0-0-0-0--5-5-5-5-5-5-------------------------|


Guitar 2
|---------------------------------------------------------------------|
|---------------------------------------------------------------------|
|---------------------------------------------------------------------|
|-2-2--5-5-5-5--3-3--6-6-6-6------------------------------------------|
|-2-2--5-5-5-5--3-3--6-6-6-6------------------------------------------|
|-2-2--5-5-5-5--3-3--6-6-6-6------------------------------------------|

Verse

Guitar 1
|---------------------------------------------------------------------|
|---------------------------------------------------------------------|
|---------------------------------------------------------------------|
|---------------------------------------------------------------------|
|---------------------------------------------------------------------|
|2-2-2-2---5-5-5-5-5-5-5---3-3-3-3---6-6-6-6-6-6----------------------|

Guitar 2
|---------------------------------------------------------------------|
|--12~---10~----12~--14~----------------------------------------------|
|---------------------------------------------------------------------|
|---------------------------------------------------------------------|
|---------------------------------------------------------------------|
|---------------------------------------------------------------------|

[ Tab from: http://www.guitartabs.cc/tabs/c/cold/ghost_in_here_tab.html ]
Chorus

Guitar 1
|---------------------------------------------------------------------|
|---------------------------------------------------------------------|
|---------------------------------------------------------------------|
|-----------5-5-5-5-5-5-----------7-7-7-7-7-7-------------------------|
|--2-2-2-2--5-5-5-5-5-5--2-2-2-2--7-7-7-7-7-7-------------------------|
|--0-0-0-0--3-3-3-3-3-3--0-0-0-0--5-5-5-5-5-5-------------------------|

Guitar 2
|---------------------------------------------------------------------|
|--12~---10~---14~---9~-----------------------------------------------|
|---------------------------------------------------------------------|
|---------------------------------------------------------------------|
|---------------------------------------------------------------------|
|---------------------------------------------------------------------|

Bridge 1
(Your Killing Me)
Both Guitars
|---------------------------------------------------------------------|
|---------------------------------------------------------------------|
|---------------------------------------------------------------------|
|---------------------------------------------------------------------|
|--3-3--6-6-6-6---7-7--8-8-8-8----------------------------------------|
|--5-5--6-6-6-6---5-5--8-8-8-8----------------------------------------|

Repeat Verse

Repeat Chorus

Bridge 2
|---------------------------------------------------------------------|
|---------------------------------------------------------------------|
|---------------------------------------------------------------------|
|-------------------------7--5----------------------------------------|
| -2--2-2-2--4--5-5--5-5--5--3---5-5----------------------------------|
| -0--0-0-0--2--3-3--3-3---------3-3----------------------------------|

Repeat Chorus

Outro
Guitar 2
|---------------------------------------------------------------------|
|--12~---10~---14~---9~-----------------------------------------------|
|---------------------------------------------------------------------|
|---------------------------------------------------------------------|
|---------------------------------------------------------------------|
|---------------------------------------------------------------------|




Questions, Comments, Send To send_in_the_klowns@hotmail.com

Comments