Cold - Everyone Dies Chords & Tabs

 

Everyone Dies Chords & Tabs

Cold Chords & Tabs

Version: 2 Type: Bass Tab 0 ratings
1 star 2 stars 3 stars 4 stars 5 stars
comments

Everyone Dies Bass Tab

   
===================================================================
	Band:   Cold
	Song:   Everyone Dies
	Album:  Cold
	Author: Obsidian (creatorofsong@hotmail.com)
	Tuning: C, F, Bb, Eb
===================================================================

Verse:

Eb|----2-----2----|----2-----2----|
Bb|---------------|---------------|
F |-00----00------|-00----00------|
C |---------------|---------------|
[ Tab from: http://www.guitartabs.cc/tabs/c/cold/everyone_dies_btab_ver_2.html ]
Chorus:
Eb|------------------|------------------|----2-----2----|----2-----2----|
Bb|------------------|------------------|---------------|---------------|
F |-5-5-5-5--5-5-5-5-|-3-3-3-3--3-3-3-3-|-00----00------|-00----00------|
C |------------------|------------------|---------------|---------------|

Finale:
Eb|------------------|------------------|------------------|------------------|
Bb|------------------|------------------|------------------|------------------|
F |------------------|------------------|-0-0-0-0--0-0-0-0-|-0-0-0-0--0-0-0*--|
C |-1-1-1-1--1-1-1-1-|-3-3-3-3--3-3-3-3-|------------------|----------------3-|
(* end on this note)
Comments