Cold - Dont Belong Chords & Tabs

 

Dont Belong Chords & Tabs

Cold Chords & Tabs

Version: 2 Type: Tab 0 ratings
1 star 2 stars 3 stars 4 stars 5 stars
comments

Dont Belong Tab

   
Song: Dont Belong
Artist: Cold

Tuning: (low to high: C F Bb Eb G C)



Intro: guitar 1:
|--19-19-19--21-20-19--|
|----------------------|
|----------------------|
|----------------------|
|----------------------|
|----------------------|

Verse: guitar 1:
|--17-17-17-17-17-17--15-15-15--19-19--21-20-19--|
|------------------------------------------------|
|------------------------------------------------|
|------------------------------------------------|
|------------------------------------------------|
|------------------------------------------------|

guitar 2:
|--------9-12--------9-12---------9-12/17--12--|
|----------------------------------------------|
|--9-12--------9-12---------9-12---------------|
|----------------------------------------------|
|----------------------------------------------|
|----------------------------------------------|

Chorus:
|-------------------------------------------------------------
|-------------------------------------------------------------
|-------------------------------------------------------------
|--7--7-7--7-7-7-7--7--7-7--7-7-7-7-7-7-7---------------------
|--5--5-5--5-5-5-5--5--5-5--5-5-5-5-5-5-5--8--8-8--8-8-8------
|------------------------------------------6--6-6--6-6-6------

|------------------|
|------------------|
|------------------|
|------------------|
|--3--3-3--3-3-3---|
|--1--1-1--1-1-1---|

guitar 2: before 2nd verse:
|------------------------------------------|
|------------------------------------------|
|---------10-12---------10-12--14\12\10----|
|--10-12---------10-12---------------------|
|------------------------------------------|
|------------------------------------------|

Verse: guitar 1:
|--17-17-17-17-17-17--15-15-15--19-19--21-20-19--|
|------------------------------------------------|
|------------------------------------------------|
|------------------------------------------------|
|------------------------------------------------|
|------------------------------------------------|
[ Tab from: http://www.guitartabs.cc/tabs/c/cold/dont_belong_tab_ver_2.html ]
guitar 2:
|--------9-12--------9-12---------9-12/17--12--|
|----------------------------------------------|
|--9-12--------9-12---------9-12---------------|
|----------------------------------------------|
|----------------------------------------------|
|----------------------------------------------|

Chorus:
|-------------------------------------------------------------
|-------------------------------------------------------------
|-------------------------------------------------------------
|--7--7-7--7-7-7-7--7--7-7--7-7-7-7-7-7-7---------------------
|--5--5-5--5-5-5-5--5--5-5--5-5-5-5-5-5-5--8--8-8--8-8-8------
|------------------------------------------6--6-6--6-6-6------

|------------------|
|------------------|
|------------------|
|------------------|
|--3--3-3--3-3-3---|
|--1--1-1--1-1-1---|

Breakdown-type thing: 2:13
guitar 1:
|-----------13---------------|
|--10-8-10------10-8-10------|
|-----------------------10---|
|----------------------------|
|----------------------------|
|----------------------------|

guitar 2: (play the chorus part palm-muted)
|-------------------------------------------------------------
|-------------------------------------------------------------
|-------------------------------------------------------------
|--7--7-7--7-7-7-7--7--7-7--7-7-7-7-7-7-7---------------------
|--5--5-5--5-5-5-5--5--5-5--5-5-5-5-5-5-5--8--8-8--8-8-8------
|------------------------------------------6--6-6--6-6-6------

|------------------|
|------------------|
|------------------|
|------------------|
|--3--3-3--3-3-3---|
|--1--1-1--1-1-1---|

Chorus again:
|-------------------------------------------------------------
|-------------------------------------------------------------
|-------------------------------------------------------------
|--7--7-7--7-7-7-7--7--7-7--7-7-7-7-7-7-7---------------------
|--5--5-5--5-5-5-5--5--5-5--5-5-5-5-5-5-5--8--8-8--8-8-8------
|------------------------------------------6--6-6--6-6-6------

|------------------|
|------------------|
|------------------|
|------------------|
|--3--3-3--3-3-3---|
|--1--1-1--1-1-1---|

Ending:
|-----------13---------------|
|--10-8-10------10-8-10------|
|-----------------------10---|
|----------------------------|
|----------------------------|
|----------------------------|
Comments