Cold - Dont Belong Chords & Tabs

 

Dont Belong Chords & Tabs

Cold Chords & Tabs

Version: 1 Type: Tab 0 ratings
1 star 2 stars 3 stars 4 stars 5 stars
comments

Dont Belong Tab

   
Guitar Chords for Dont Belong
By: COLD
Album: The Year of the Spider 

Transcribed by
Ricardo Alvarez (RICK THE HERETIC) 

For any comments or changes e-mail me 
(freakardo@hotmail.com or hereticband@hotmail.com)

-------------------------------------------------------------------

Tune guitar 1/2 step down
(Eb Ab Db Gb Bb Eb)
[ Tab from: http://www.guitartabs.cc/tabs/c/cold/dont_belong_tab.html ]
Intro/Verse
|-----------------------------------------------------------------|
|-----------------------------------------------------------------|
|-----------------------------------------------------------------|
|-444-44-44-4--555-55-55-5----------------------------------------|
|-444-44-44-4--555-55-55-5----------------------------------------|
|-444-44-44-4--555-55-55-5----------------------------------------|x8


Chorus
|-----------------------------------------------------------------|
|-----------------------------------------------------------------|
|-----------------------------------------------------------------|
|-999-99-99-9-999-99-99-9--555-55-55-5-555-55-55-5----------------|
|-999-99-99-9-999-99-99-9--555-55-55-5-555-55-55-5----------------|
|-999-99-99-9-999-99-99-9--555-55-55-5-555-55-55-5----------------|x4
Comments