Cold - Dont Belong Chords & Tabs

 

Dont Belong Chords & Tabs

Cold Chords & Tabs

Version: 3 Type: Bass Tab 0 ratings
1 star 2 stars 3 stars 4 stars 5 stars
comments

Dont Belong Bass Tab

Cold
"Don't Belong"


Verse
G ----------------------------------------------------------------------------------
D ----------------------------------------------------------------------------------
A ----------------------------------------------------------------------------------
E ----------------------------------------------------------------------------------
B ---3h5-5-5-5-5---3h5-5-5-5-5---5---5-5-5---5h6---6-6-6---6-8-6--------------------


Chorus
G ----------------------------------------------------------------------------------
D ----------------------------------------------------------------------------------
A ------------------------------------------8-8-------------------------------------
E ------------------------------------------------8---------------------------------
B -10-10-10---8-10------10-10-10---8-10----------------------\1---1-1---1-1-1-------

[ Tab from: http://www.guitartabs.cc/tabs/c/cold/dont_belong_btab_ver_3.html ]
Break (..?)
G ----------------------------------------------
D ----------------------------------------------
A --------------------------------8-------------
E --------------------------------------12------
B ---3-------1------3-------------------------

 Break 2
G ----------------------------------------------------------------------------------
D ----------------------------------------------------------------------------------
A ----------------------------------------------------------------------------------
E 10-10-10-10-10-10-10-10-10-10-8-8-8-8-8-8-8-8-8-8-10-10-10-10-10-10-10-10-10-10---
B ----------------------------------------------------------------------------------

G -----------------------------------------
D -----------------------------------------
A -----------------------------------------
E ---13-13-13-13-12-12-12-12-12-12-12------
B -----------------------------------------


Order:
Verse (X8)
Chorus (X3)
Verse (X9)
Chorus (X4)
Break
Break (X2)
Chorus (X6)
Comments