Cold - Confession Chords & Tabs

 

Confession Chords & Tabs

Cold Chords & Tabs

Version: 5 Type: Tab 0 ratings
1 star 2 stars 3 stars 4 stars 5 stars
comments

Confession Tab

   
band:Cold
song:Confession
tabber:Randall (AKA Twincher)


                      THINGS YOU WANNA KNOW
                      / = slide up or down
                      x = sineced string
                      ~ = bend
                      pm = palm mute


this song is simple but kinda hard to get the vocal and guitar timing down
usually Cold tunes their guitars C F Bb Eb G C but this is how you do it with
stanard tuning  this is also how they played it in concert one so i guess have fun

  Opening:
e|---0---0---0---0---0---0---0---0--|
B|--6-6-6-6-6-6-6-6-6-6-6-6-6-6-6-6-|
G|-7---7---5---5--------------------|
D|-----------------7---7---8---8----|
A|----------------------------------|
E|----------------------------------|

  Opening 2nd time:
e|---0---0---0---0---0---------0---0--|
B|--6-6-6-6-6-6-6-6-6-6-6-8/5-6-6-6-6-|
G|-7---7---5---5----------------------|
D|-----------------7---7-----8---8----|
A|------------------------------------|
E|------------------------------------|

  Verse:
e|---0---0---0---0---0---0---0---0--|
B|--6-6-6-6-6-6-6-6-6-6-6-6-6-6-6-6-|
G|-7---7---5---5--------------------|   (play twice)
D|-----------------7---7---8---8----|
A|----------------------------------|
E|----------------------------------|
  Everybody loves stars
  Everyone fell
  Into her world
  She made here
  Where everybody rates love
  But I dont care
  Cuz its her world
  She made me

  Chorus:
e|------------------------------|
B|------------------------------|
G|------------------------------|
D|-7----7-7-7-7-7-7-7-7-7-7-7-7-|
A|-5----5-5-5-5-5-5-5-5-5-5-5-5-|
E|------------------------------|
  You think youre half as good as me

e|------------------------------|
B|------------------------------|
G|------------------------------|
D|-5----5-5-5-5-5-5-5-5-5-5-5-5-|
A|-3----3-3-3-3-3-3-3-3-3-3-3-3-|
E|------------------------------|
  The only thing youll ever be is

e|-------------------------------------|
B|-------------------------------------|
G|-------------------------------------|
D|-------------------------------------|
A|-7-7-xxxx-7-7-xxxx-7/8-8-8-x-8/11-11-|
E|-5-5-xxxx-5-5-xxxx-5/6-6-6-x-6/-9--9-|
  Just a way fom me to bleed on this

  Verse:
e|---0---0---0---0---0---0---0---0--|
B|--6-6-6-6-6-6-6-6-6-6-6-6-6-6-6-6-|
G|-7---7---5---5--------------------|   (play twice)
D|-----------------7---7---8---8----|
A|----------------------------------|
E|----------------------------------|
  Stage Everybody loves stars
  Everyone fell
  Into her world
  She made here
  Where innocense is taken
  But i dont care
  Cuz its her world
  She made me

Then play Chorus twice

  Thing:
e|-15~----------9~---11~---|
B|-------------------------|
G|-------------------------|
D|-------------------------|
A|-------------------------|
E|-------------------------|

e|-15~-----|
B|---------|
G|---------|
D|---------|
A|---------|
E|---------|
  Now shes old
  Shes been blessed

e|-9~--
B|-----
G|-----
D|-----
A|-----
E|-----
  Take bow
[ Tab from: http://www.guitartabs.cc/tabs/c/cold/confession_tab_ver_5.html ]
e|-11~--
B|------|
G|------|
D|------|
A|------|
E|------|
  And confess

  Guitar behind Thing:
e|--------------------------------------|
B|--------------------------------------|
G|----------0-0-------------------------|
D|--5-5-5-3--------5--------------------|
A|-3-3-3-1-1-1--3-3-----1-1-1-1-0-0-0-0-|
E|-------------3-3--3-1-1-1-1-0-0-0-0---|
  Now shes old
  Shes been blessed
  Take a bow
  And confess

  Verse:
e|---0---0---0---0---0---0---0---0--|
B|--6-6-6-6-6-6-6-6-6-6-6-6-6-6-6-6-|
G|-7---7---5---5--------------------|
D|-----------------7---7---8---8----|
A|----------------------------------|
E|----------------------------------|
  Now shes old
  Shes been blessed
  Take a bow
  And confess

  Chorus (different words, play twice):
e|----------------------|
B|----------------------|
G|----------------------|
D|-7----7-7-7-7-7-7-7-7-|
A|-5----5-5-5-5-5-5-5-5-|
E|----------------------|
  She threw it all away

e|----------------------|
B|----------------------|
G|----------------------|
D|-5----5-5-5-5-5-5-5-5-|
A|-3----3-3-3-3-3-3-3-3-|
E|----------------------|
  My angel died that day

e|-------------------------------------|
B|-------------------------------------|
G|-------------------------------------|
D|-------------------------------------|
A|-7-7-xxxx-7-7-xxxx-7/8-8-8-x-8/11-11-|
E|-5-5-xxxx-5-5-xxxx-5/6-6-6-x-6/-9--9-|
  No one came
  No one cared

Play chorus twice

  Chorus last time:
  Chorus:
e|------------------------------|
B|------------------------------|
G|------------------------------|
D|-7----7-7-7-7-7-7-7-7-7-7-7-7-|
A|-5----5-5-5-5-5-5-5-5-5-5-5-5-|
E|------------------------------|
  You think youre half as good as me

e|------------------------------|
B|------------------------------|
G|------------------------------|
D|-5----5-5-5-5-5-5-5-5-5-5-5-5-|
A|-3----3-3-3-3-3-3-3-3-3-3-3-3-|
E|------------------------------|
  The only thing youll ever be is

e|-------------------------------------|
B|-------------------------------------|
G|-------------------------------------|
D|-------------------------------------|
A|-7-7-xxxx-7-7-xxxx-7/8-8-8-x-8/11-11-|
E|-5-5-xxxx-5-5-xxxx-5/6-6-6-x-6/-9--9-|
 pm                                  :
  Just a way fom me to bleed on this stage

The way the played the chorus the last time in concert was:

  Chorus:
e|------------------|
B|------------------|
G|------------------|
D|-7----------------|
A|-5----------------|
E|------------------|
  *lyrics I didnt understand*

e|------------------|
B|------------------|
G|------------------|
D|-5----------------|
A|-3----------------|
E|------------------|
  *more lyrics i didnt get*

e|-------------------------------------|
B|-------------------------------------|
G|-------------------------------------|
D|-------------------------------------|
A|-7-7-xxxx-7-7-xxxx-7/8-8-8-x-8/11-11-|
E|-5-5-xxxx-5-5-xxxx-5/6-6-6-x-6/-9--9-|
  Its just a way to take a bow and confess

thats it    its my first tab but i know its right so rate good

later, Twincher
Comments