Cold - Confession Chords & Tabs

 

Confession Chords & Tabs

Cold Chords & Tabs

Version: 2 Type: Tab 0 ratings
1 star 2 stars 3 stars 4 stars 5 stars
comments

Confession Tab

Cold- Confession
From the album- 13 Ways To Bleed On Stage
tabbed by- me

intro:
E-----------------------------------------------------------------|
B-----------------------------------------------------------------|
G----6-5-6---6-5-6---6-5-6---6-5-6---6-5-6---6-5-6---6-5-6--6-5-6-|
D--8-------8-------6-------6-----------------------4------4-------|
A----------------------------------8-------8----------------------|
E-----------------------------------------------------------------|

E-------------------------------------------------------------|
B-------------------------------------------------------------|
G----6-5-6---6-5-6-----------6-5-6---6-8/5--------------------|
D--8-------8-------6------------------------------------------|
A--------------------------8-------8--------------------------|
E-------------------------------------------------------------|

verse:
E-----------------------------------------------------------------|
B-----------------------------------------------------------------|
G----6-5-6---6-5-6---6-5-6---6-5-6---6-5-6---6-5-6---6-5-6--6-5-6-|
D--8-------8-------6-------6-----------------------4------4-------|
A----------------------------------8-------8----------------------|
E-----------------------------------------------------------------|

E-----------------------------------------------------------------|
B-----------------------------------------------------------------|
G----6-5-6---6-5-6---6-5-6---6-5-6---6-5-6---6-5-6---6-5-6--6-5-6-|
D--8-------8-------6-------6-----------------------4------4-------|
A----------------------------------8-------8----------------------|
E-----------------------------------------------------------------|

chorus:
E-----------------------------------------------------------------|
B-----------------------------------------------------------------|
G-----------------------------------------------------------------|
D--8-8-8-8-6-6-6-6-3-3-x-x-x-x-3-3-x-x-x-x-3/4-4-4-4/6-6-6-6------|
A--8-8-8-8-6-6-6-6-3-3-x-x-x-x-3-3-x-x-x-x-3/4-4-4-4/6-6-6-6------|
E--6-6-6-6-4-4-4-4-1-1-x-x-x-x-1-1-x-x-x-x-1/2-2-2-2/4-4-4-4------|

after chorus:
E-----------------------------------------------------------------|
B-----------------------------------------------------------------|
G----6-5-6---6-5-6---6-5-6---6-5-6---6-5-6---6-5-6---6-5-6--6-5-6-|
D--8-------8-------6-------6-----------------------4------4-------|
A----------------------------------8-------8----------------------|
E-----------------------------------------------------------------|

verse:
E-----------------------------------------------------------------|
B-----------------------------------------------------------------|
G----6-5-6---6-5-6---6-5-6---6-5-6---6-5-6---6-5-6---6-5-6--6-5-6-|
D--8-------8-------6-------6-----------------------4------4-------|
A----------------------------------8-------8----------------------|
E-----------------------------------------------------------------|

E-----------------------------------------------------------------|
B-----------------------------------------------------------------|
G----6-5-6---6-5-6---6-5-6---6-5-6---6-5-6---6-5-6---6-5-6--6-5-6-|
D--8-------8-------6-------6-----------------------4------4-------|
A----------------------------------8-------8----------------------|
E-----------------------------------------------------------------|
[ Tab from: http://www.guitartabs.cc/tabs/c/cold/confession_tab_ver_2.html ]
chorus:
E-----------------------------------------------------------------|
B-----------------------------------------------------------------|
G-----------------------------------------------------------------|
D--8-8-8-8-6-6-6-6-3-3-x-x-x-x-3-3-x-x-x-x-3/4-4-4-4/6-6-6-6------|
A--8-8-8-8-6-6-6-6-3-3-x-x-x-x-3-3-x-x-x-x-3/4-4-4-4/6-6-6-6------|
E--6-6-6-6-4-4-4-4-1-1-x-x-x-x-1-1-x-x-x-x-1/2-2-2-2/4-4-4-4------|

E-----------------------------------------------------------------|
B-----------------------------------------------------------------|
G-----------------------------------------------------------------|
D--8-8-8-8-6-6-6-6-3-3-x-x-x-x-3-3-x-x-x-x-3/4-4-4-4/6-6-6-6------|
A--8-8-8-8-6-6-6-6-3-3-x-x-x-x-3-3-x-x-x-x-3/4-4-4-4/6-6-6-6------|
E--6-6-6-6-4-4-4-4-1-1-x-x-x-x-1-1-x-x-x-x-1/2-2-2-2/4-4-4-4------|

bridge:
E-------------------------------------------------|
B-------------------------------------------------|
G-------------------------------------------------| x4
D-------------3---3h4-3----3---3-----3-----3------|
A----8---8-------------------------4-----3--------|
E--6---6----4---4--------1---1---2-----1----------|

E-----------------------------------------------------------------|
B-----------------------------------------------------------------|
G-----------------------------------------------------------------|
D--8-8-8-8-6-6-6-6-3-3-x-x-x-x-3-3-x-x-x-x-3/4-4-4-4/6-6-6-6------|
A--8-8-8-8-6-6-6-6-3-3-x-x-x-x-3-3-x-x-x-x-3/4-4-4-4/6-6-6-6------|
E--6-6-6-6-4-4-4-4-1-1-x-x-x-x-1-1-x-x-x-x-1/2-2-2-2/4-4-4-4------|

E-----------------------------------------------------------------|
B-----------------------------------------------------------------|
G-----------------------------------------------------------------|
D--8-8-8-8-6-6-6-6-3-3-x-x-x-x-3-3-x-x-x-x-3/4-4-4-4/6-6-6-6------|
A--8-8-8-8-6-6-6-6-3-3-x-x-x-x-3-3-x-x-x-x-3/4-4-4-4/6-6-6-6------|
E--6-6-6-6-4-4-4-4-1-1-x-x-x-x-1-1-x-x-x-x-1/2-2-2-2/4-4-4-4------|

chorus:
E-----------------------------------------------------------------|
B-----------------------------------------------------------------|
G-----------------------------------------------------------------|
D--8-8-8-8-6-6-6-6-3-3-x-x-x-x-3-3-x-x-x-x-3/4-4-4-4/6-6-6-6------|
A--8-8-8-8-6-6-6-6-3-3-x-x-x-x-3-3-x-x-x-x-3/4-4-4-4/6-6-6-6------|
E--6-6-6-6-4-4-4-4-1-1-x-x-x-x-1-1-x-x-x-x-1/2-2-2-2/4-4-4-4------|

E-----------------------------------------------------------------|
B-----------------------------------------------------------------|
G-----------------------------------------------------------------|
D--8-8-8-8-6-6-6-6-3-3-x-x-x-x-3-3-x-x-x-x-3/4-4-4-4/6-6-6-6------|
A--8-8-8-8-6-6-6-6-3-3-x-x-x-x-3-3-x-x-x-x-3/4-4-4-4/6-6-6-6------|
E--6-6-6-6-4-4-4-4-1-1-x-x-x-x-1-1-x-x-x-x-1/2-2-2-2/4-4-4-4------|

E-----------------------------------------------------------------|
B-----------------------------------------------------------------|
G-----------------------------------------------------------------|
D--8-8-8-8-6-6-6-6-3-3-x-x-x-x-3-3-x-x-x-x-3/4-4-4-4/6-6-6-6------|
A--8-8-8-8-6-6-6-6-3-3-x-x-x-x-3-3-x-x-x-x-3/4-4-4-4/6-6-6-6------|
E--6-6-6-6-4-4-4-4-1-1-x-x-x-x-1-1-x-x-x-x-1/2-2-2-2/4-4-4-4------|

lyrics:
everybody loves stars
everyone fell into her world she
made here
where everybody rates love but I
donít care
cuz itís her world she made me
you think youíre 1/2 as good as me
the only thing youíll ever be is just
a way for me to bleed on this
stage
everybody loves stars, everyone fall
into her world she made here
where innocence is taken but I
donít care
cuz its her world she made me
you think youíre 1/2 as good as me
the only thing youíll ever be is just
a way for me to bleed on this
stage
now sheís old, sheís been blessed take a
bow and confess
she threw it all away, my angel
died that day no one came, no one cared
you think youíre 1/2 as good as me
the only thing youíll ever be is just
a way for me to bleed on this
stage
Comments