Cold - Confession Chords & Tabs

 

Confession Chords & Tabs

Cold Chords & Tabs

Version: 1 Type: Tab 0 ratings
1 star 2 stars 3 stars 4 stars 5 stars
comments

Confession Tab

#----------------------------------PLEASE NOTE--------------------------------#
#This file is the author's own work and represents their interpretation of the#
#song. You may only use this file for private study, scholarship, or research.#
#-----------------------------------------------------------------------------#
#-- File created with Instab - http://www.pconline.com/~smcarey/instab.html --#
#-----------------------------------------------------------------------------#

Author/Artist: Cold
Title: Confession
Album: 13 Ways To Bleed On Stage
Transcribed by: Carlos Acosta
Email: Systemdown17@yahoo.com

Cold doesnt tune their guitars to drop C  they tune 
their guitars two whole steps down which is C F Bb Eb G C
use slight delay and a little distortion for the intro.

-----0-------0-------0-------0-------0-------0-------0------------------------
---6---6---6---6---6---6---6---6---6---6---6---6---6---6----------------------
-7-------7-------5------------------------------------------------------------
-------------------------7-------7-------8-------8----------------------------
------------------------------------------------------------------------------
------------------------------------------------------------------------------
 They do this in the intro too                                                
[ Tab from: http://www.guitartabs.cc/tabs/c/cold/confession_tab.html ]
------------------------------------------------------------------------------
---6-8\5----------------------------------------------------------------------
------------------------------------------------------------------------------
-7----------------------------------------------------------------------------
------------------------------------------------------------------------------
------------------------------------------------------------------------------
 Chorus                                                                       

------------------------------------------------------------------------------
------------------------------------------------------------------------------
------------------------------------------------------------------------------
--7-------5-------------------------------------------------------------------
--5--x9---3--x9--7-7-xxxx-7-7-xxxx-7/88-888/10--------------------------------
-----------------5-5-xxxx-5-5-xxxx-5/66-666/8---------------------------------
 Bridge                                                                       

-15^----10^------13^----------------------------------------------------------
------------------------------------------------------------------------------
------------------------------------------------------------------------------
------------------------------------------------------------------------------
------------------------------------------------------------------------------
------------------------------------------------------------------------------
 play chorus to the end

Comments