Cold - Bleed Chords & Tabs

 

Bleed Chords & Tabs

Cold Chords & Tabs

Version: 5 Type: Tab 0 ratings
1 star 2 stars 3 stars 4 stars 5 stars
comments

Bleed Tab

Band: Cold
Song: Bleed
Album: 13 ways to bleed onstage
Email: gitarkid@hotmail.com
Tuning drop D
[ Tab from: http://www.guitartabs.cc/tabs/c/cold/bleed_tab_ver_5.html ]
intro
-------------------------------------------------------
-------3---3-----------1---1---------------------------
-----------------------------------5---5----------5----
---5-----5---5-----3-----3---------------------------3-
-3---3-----------1---1----------6----6---6----5------1-
------------------------------6---6---------5---5------

-------------------------------------------------------
-----1--1---------1--1---------------------------------
------------------------------5---5-------5---5--------
-------------------------------------------------------
-------------------------------------------------------
-1-1---1--1-0--0----0---0--6-6--6---6-5--5--5---5------


does this sound rite to u guitarists out there, give me feed back
Comments