Cold - Anti Love Song Chords & Tabs

 

Anti Love Song Chords & Tabs

Cold Chords & Tabs

Version: 2 Type: Tab 0 ratings
1 star 2 stars 3 stars 4 stars 5 stars
comments

Anti Love Song Tab

   
Anti-Love Song

Straight C Tuning, tune down two whole steps

1=C   4=Bb
2=G   5=F
3=Eb  6=C

| -------
| -------
| ---9---
| -------
| ---7---
| ---0---
  Intro  *use wah

| ---------------------------------
| ---------------------------------
| ---------------------------------
| ---------------------------------
| ---------------------------------
| -0----0h3~~---3/2----2/6~~---
  Verse  * use wah
[ Tab from: http://www.guitartabs.cc/tabs/c/cold/anti_love_song_tab_ver_2.html ]
| ---------------------------------------------------------------
| ---------------------------------------------------------------
| -9--9-9-9--9/12--12-12-12-11--11-11-11-11/15--15-15---
| ---------------------------------------------------------------
| -7--7-7-7--7/10--10-10-10--9---9--9--9--9/13--13-13---
| ---------------------------------------------------------------
  Chorus

| ---------------------------------------------------------------
| ---------------------------------------------------------------
| -9--9-9-9--9/12--12-12-12-11--11-11-11-11/15-15--15---
| -9--9-9-9--9/12--12-12-12-11--11-11-11-11/15-15--15---
| -7--7-7-7--7/10--10-10-10--9---9--9--9--9/13-13--13---
| ---------------------------------------------------------------
  Bridge  *acoustic


====

Cold
Anti-Love Song
From: 13 Ways to Bleed On Stage
Tabbed By: Dark Prince

Tuning: CGCFAD

Intro

C-6-6-6-0-
G-6-6-6-0-
C-6-6-6-0-

Chorus

C-0-0-0-0--3-3-3-3--2-2-2-2--6-6-6-6-
G-0-0-0-0--3-3-3-3--2-2-2-2--6-6-6-6-
C-0-0-0-0--3-3-3-3--2-2-2-2--6-6-6-6-

Verse

C-6-6--0-0--0-0--3-3--3-3-2-2--2-2-6-6-
G-6-6--0-0--0-0--3-3--3-3-2-2--2-2-6-6-
C-6-6--0-0--0-0--3-3--3-3-2-2--2-2-6-6-

====
Comments