Cold - Anti Love Song Chords & Tabs

 

Anti Love Song Chords & Tabs

Cold Chords & Tabs

Version: 1 Type: Tab 0 ratings
1 star 2 stars 3 stars 4 stars 5 stars
comments

Anti Love Song Tab

   
Anti-Love Song

Straight C Tuning, tune down two whole steps

1=C   4=Bb
2=G   5=F
3=Eb  6=C

| -------
| -------
| ---9---
| -------
| ---7---
| ---0---
  Intro  *use wah

| ---------------------------------
| ---------------------------------
| ---------------------------------
| ---------------------------------
| ---------------------------------
| -0----0h3~~---3/2----2/6~~---
  Verse  * use wah
[ Tab from: http://www.guitartabs.cc/tabs/c/cold/anti_love_song_tab.html ]
| ---------------------------------------------------------------
| ---------------------------------------------------------------
| -9--9-9-9--9/12--12-12-12-11--11-11-11-11/15-15--15---
| ---------------------------------------------------------------
| -7--7-7-7--7/10--10-10-10--9---9---9--9---9/13--13-13---
| ---------------------------------------------------------------
  Chorus

| ---------------------------------------------------------------
| ---------------------------------------------------------------
| -9--9-9-9--9/12--12-12-12-11--11-11-11-11/15-15--15---
| -9--9-9-9--9/12--12-12-12-11--11-11-11-11/15-15--15---
| -7--7-7-7--7/10--10-10-10--9---9---9--9---9/13-13-13---
| ---------------------------------------------------------------
  Bridge  *acoustic


 
Find Old Friends 
 
 
undefined 
More... 
 
 
 
[Close] 
 
 
 
[Close] 
 
 
undefined

Comments