Cohen Leonard - Memories Chords & Tabs

 

Memories Chords & Tabs

Cohen Leonard Chords & Tabs

Version: 1 Type: Tab 0 ratings
1 star 2 stars 3 stars 4 stars 5 stars
comments

Memories Tab

#----------------------------------PLEASE NOTE---------------------------------#
#This file is the author's own work and represents their interpretation of the #
#song. You may only use this file for private study, scholarship, or research. #
#------------------------------------------------------------------------------#

From: T Dymarz [tdymarz@gpu.srv.ualberta.ca]
Sent: Sunday, January 25, 1998 3:48 PM
To: guitar@olga.net
Subject: TAB: c/cohen_leonard/memories.tab

Tabbed by Tullia Dymarz, tdymarz@gpu.srv.ualberta.ca

Memories-Leonard Cohen-Death of a Ladies Man

Comments: the notes in () should be stressed for they are the base
line, this piece is not in the original key, all notes are of equal
value. This piece sounds better on the piano but this quitar version
is mellower
[ Tab from: http://www.guitartabs.cc/tabs/c/cohen_leonard/memories_tab.html ]
e---------------|---------------|---------------|----------------||
b--------1------|--------1------|--------1------|------0---------||
g------2---2----|------2---2----|------2---2----|----0-----------||
d----0----------|----2----------|----3----------|----------------||
a-(3)-------(2)-|-(0)-----------|---------------|---------(0)(2)-||
E---------------|-----------(3)-|-(1)-------(1)-|-(3)---(3)------||
 
     

e---------------|--------0------|------0-----0--|------0---------||
b--------1------|------3---3----|----1-----1----|----1-----------||
g------2--------|----1------(0)-|-(2)---(2)-----|-(2)---(2)(0)---||
d----0----(0)(1)|-(2)-----------|---------------|------------(2)-||
a-(3)-----------|---------------|---------------|----------------||
E---------------|---------------|---------------|----------------||
  
   

e---------------|---------------||
b--------1------|--------1------||
g------2--------|------2--------||
d----3----------|----0----------||
a---------(0)(2)|-(3)-----(2)(0)||
E-(1)-----------|---------------||
Comments