Coheed And Cambria - Welcome Home Chords & Tabs

 

Welcome Home Chords & Tabs

Coheed And Cambria Chords & Tabs

Version: 6 Type: Tab

Welcome Home Tab

   
Welcome Home ((Intro))- Coheed and Cambria

riff a
------------------------------------------------------------------|
------------------------------------------------------------------|
------------------------------------------------------------------|
----9-9-10-12-10-9-------10-9------------9-9-10-12-10-9-----------|
--10---------------12-12------12-10-9--10---------------9-12-10-9-|
-0------------------------------------0---------------------------|
[ Tab from: http://www.guitartabs.cc/tabs/c/coheed_and_cambria/welcome_home_tab_ver_6.html ]
riff b
---------------------------------------------------------------------|
---------------------------------------------------------------------|
---------------------------------------------------------------------|
---------------------------------------------------------------------|
---------------------------------------12-----------------12---------|
-12-12-14-15-14-12-12-14-15-14-12-14-15--15-14-12-12-14-15--15-14-12-|

order:
riff a 2 times
riff b 2 times
riff a 2 times
riff b 2 times

yeah i know my other one was fucked over andf this one isnt exactly perfect either but 
is closer and sounds good.

mvbracci@aol.com

coca is god