Coheed And Cambria - Welcome Home Chords & Tabs

 

Welcome Home Chords & Tabs

Coheed And Cambria Chords & Tabs

Version: 5 Type: Tab

Welcome Home Tab

ok,  so i havent found a solo that was close to being correct.  One look at the music
video discredited most of them, because their position on the fretboard was way off. 
Plus, half of them just sounded funny.  So...this one should be better,  hopefully
close to perfect.   peace

* pinch harmonic
~ vibrato
^ bend


Travis
|--------------------------------------------------------|
|--------------------------------------------------------|
|---16p14p12-16p14p12-16p14p12-16p14p12-16p14p12-16p14p12|
|--------------------------------------------------------|
|--------------------------------------------------------|
|--------------------------------------------------------|

|-----18b-17-15-15b-12-12-----------------|
|-15b-----------------------------17-19^--|
|--------------------------/16-19---------|
|-----------------------------------------|
|-----------------------------------------|
|-----------------------------------------|

|---17-17-12---15-15-12---14-14-10---12-12-8-7h8p7----7---------------|
|--------------------------------------------------10---8-10-12/------|
|-----------------------------------------------------------------/9--|
|---------------------------------------------------------------------|
|---------------------------------------------------------------------|
|---------------------------------------------------------------------|


Claudio
|----------------------------------15^--15^-------------------|
|-------17-16^--16^----------15h17----------------------------|
|-14-16-------------16p14h16-------------------------9--12*^--|
|-------------------------------------------9-10-12-----------|
|-------------------------------------------------------------|
|-------------------------------------------------------------|
                                            .  .  .  .

|------------------------------------------------------------|
|------------------------------------------------------------|
|---------16-------14----------------------------------------|
|--14/16-----17-14----17-16-12---0-2-4h5p4p2p0--2-4-5--4p2p0-|
|------------------------------------------------------------|
|------------------------------------------------------------|

[ Tab from: http://www.guitartabs.cc/tabs/c/coheed_and_cambria/welcome_home_tab_ver_5.html ]
Travis
|----------7h8h10p8p10-------------------------------------|
|-7h8h10---------------10-8-7-8-7h8p7-7--------------------|
|------------------------------------------9^------9^------|
|----------------------------------------------9-------9---|
|----------------------------------------------------------|
|----------------------------------------------------------|

|---19^-17-15----17p15------------------------------|
|----------------------17-17---17p15----------------|
|------------------------------------16-16---16p14--|
|---------------------------------------------------|
|---------------------------------------------------|
|---------------------------------------------------|

|-----------------------------------------------------|
|-----------------------------------------------------|
|----11---11-11--11-12---12-12---12-14--14-14--14-16--|
|----x----x--x---x--x----x--x----x--x---x--x---x--x---|
|--7/9----9--9---9/-10---10-10---10/12--12-12--12/14--|
|-----------------------------------------------------|


Claudio
|--------------------------------------------------------------|
|--------------------------------------------------------------|
|-------2-4-5-7-9-9*^-9p7-7*^--4-4h5p4-------------------------|
|-0-2-5--------------------------------7p5h7-7-8-7^-7h5-5h7p5~-| 
|--------------------------------------------------------------|
|--------------------------------------------------------------|
  . . . . . . . .





|------3-7-3---5-------7b--10------------------------|
|--3-5-------5----8-10--------10b---8-7-8-7-5-7h8p7~-| 
|----------------------------------------------------| 
|----------------------------------------------------| 
|----------------------------------------------------|
|----------------------------------------------------|


Travis
|--------------------------------------------|
|---7p5p0-8p5p0-12p8p0-13p8p0-12p8p0-8p5p0-7-|
|-4------------------------------------------|
|--------------------------------------------|
|--------------------------------------------|
|--------------------------------------------|

|-----------------------------------------------|
|---7p5p0-8p5p0-12p8p0-13p8p0-12p8p0-8p5p0-7----|
|-5---------------------------------------------|
|-----------------------------------------------|
|-----------------------------------------------|
|-----------------------------------------------|

|-----------------------------------------------| 
|---7p5p0-8p5p0-12p8p0-13p8p0-15p12p0-13p8p0-12-| 
|-7---------------------------------------------| 
|-----------------------------------------------| 
|-----------------------------------------------|
|-----------------------------------------------|

|---------3-------3-------3-|
|---5p3p0---5p3p0---5p3p0---|
|/4-------------------------|
|---------------------------|
|---------------------------|
|---------------------------|