Coheed And Cambria - Welcome Home Chords & Tabs

 

Welcome Home Chords & Tabs

Coheed And Cambria Chords & Tabs

Version: 4 Type: Tab

Welcome Home Tab

Ok listen this is my first tab but w/e i know this song like i know the back of my hand 
i hate it when people get the main parts of the song wrong in tabs, it just pisses me 
so here it is... right im not gonna post the solo because the othere tabs have it right.
so if u wanna know just look it up else where but heres the main parts

Intro

Guitar 1=Clean
e|-----------------------------------------------------------------------|
B|-----------------------------------------------------------------------|
G|o------------7v----------------------------------7v-----------------o--| x2
D|o-------9-10---10-9-7--7-10-9-7-------------9-10---10-9----------------|o
A|------7-------------------------10-9------7-------------9--12-10-9-----|
E|--0-0---------------------------------0-0---------------10-14-12-10----|
__________________________________________________________________________
Guitar 1=Distortion
e|--------------------------------------------------------------------|
B|--------------------------------------------------------------------|
G|-------------7v*---------------------------------7v*----------------|
D|--------9-10---10-9-7*-7-10-9-7-------------9-10---10-9-------------|
A|------7-------------------------10-9------7-------------9--12-10-9--|
E|--0-0---------------------------------0-0---------------10-14-12-10-|

e|-----------------------------------------------------------------------|
B|-----------------------------------------------------------------------|
G|-------------7v*---------------------------------7v*-------------------|
D|--------9-10---10-9-7*-7-10-9-7-------------9-10---10-9----------------|
A|------7-------------------------10-9------7-------------7v*-(let Ring)-|
E|--0-0---------------------------------0-0------------------------------|

Guitar 2=Distortion
e|----------------------------------------------------------------------|
B|----------------------------------------------------------------------|
G|----------------------------------------------------------------------|
D|-2-----------------------------------2--------------------------------|
A|-2(let ring)-------------------------2--------------------------------|
E|-0-----------------------------------0--------------------------------|

e|----------------------------------------------------------------------|
B|----------------------------------------------------------------------|
G|----------------------------------------------------------------------|
D|-2----------0h2p0h2p0h2p0h2----------2--------------------------------|
A|-2-----------------------------------2-----------------9--12-10-9-----|
E|-0-----------------------------------0-----------------10-14-12-10----|
_________________________________________________________________________

Guitar 1= Distortion

e|--------------------------------------------------------------|
B|--------------------------------------------------------------|
G|--------------------------------------------------------------|
D|---------------------------------7-----------------7----------|
A|-----9-10-9-----9-10-9----7-9-10---10-9-7---7-9-10---10-9-7---|
E|-0-0--------0-0-----------------------------------------------|
pm . .        . .
Guitar 2= Distortion
[ Tab from: http://www.guitartabs.cc/tabs/c/coheed_and_cambria/welcome_home_tab_ver_4.html ]
e|--------------------------------------------------------------|
B|--------------------------------------------------------------|
G|----------------------------------------------------------4*--|
D|----------4*---------4*-----------------2*--------------------|
A|-2-2-2--2---2-2-2--2------2-4-5-7-5-4-------2-4-5-7-5-4-------|
E|-0-0-0--0---0-0-0--0------0-2-3-5-3-2-------0-2-3-5-3-2-------|
pm-. . .  .   . . .  .      . . . . . .       . . . . . .

*Side note- play this part twice, and the two 9's and the two 7's in guitar 1 should 
played at the same time as the pinch harmonics
_____________________________________________________________________

Guitar 2= Distortion

e|--------------------------------------------------------------|
B|--------------------------------------------------------------|
G|--------------------------7-7-7-------------------------------|
D|-9-9-9-(x4)-10-10-10-(x4)-x-x-x-(x4)-9-9-9-(x2) 9-9-9-9-9-7---| (x4)
A|-7-7-7------7--7--7-------7-7-7------7-7-7------7-7-7-7-7-5---|
E|--------------------------------------------------------------|

Guitar 1= Distortion
*Side note- Only played in the last two measures of guitar 2.

e|---------------------------------------------------|
B|---------------------------------------------------|
G|---------------------------------------------------|
D|------------------------------9-10-9-7-------------|
A|-----9-10-9-7---9---(x2)---------------10-9-7-(x2)-|
E|-0-0----------7---7-------0-0----------------------|
pm-. .                      . .
_________________________________________________________________________

Guitar 1= Distortion

e|----------------------------------------------------|
B|----------------------------------------------------|
G|-------2*-------------------------------------------|
D|-3-3-3----(x3)-3-3-3--3-3--3---2-(let ring)-5-------|
A|-3-3-3---------3-3-3--3-3--3---0------------3--/14v-|
E|-1-1-1---------1-1-1--1-1--1------------------------|
pm-. . .         . . .  . .  .

e|----------------------------------------------11b12-|
B|-------------------------------1------------1-------|
G|-------------------------------2-(let ring)-0-------|
D|-3-3-3-(x3)----3-3-3--3-3--3---2------------2-------|
A|-3-3-3---------3-3-3--3-3--3---0------------3-------|
E|-1-1-1---------1-1-1--1-1--1------------------------|
_________________________________________________________________________

Guitar 1= Distortion

e|--------------------------------------------------------|----------|
B|--------------------------------------------------------|----------|
G|-------------------------------------------------------------------|(Let ring out)
D|--------------------------------------------------------|----------|
A|-7--7-5-(x4)--10--10-10-(x4)---5--5-5-(x4)--3--3-3-(x4)-|7-10-5-3--|
E|-5--5-5-------8---8--8---------3--3-3-------1--1-1------|5-8--3-1--|
pm-.  . .       .   .  .         .  . .       .  . .

Guitar 2= Distortion

e|--------------8------------8--------8-----12----8-----12---|
B|-------10-----------10-------------------------------------|
G|-----------------------------------------------------------|
D|--------------------------------7-7---7-7---7-7---7-7------|
A|----8-8---8-8---8-8---8-8----------------------------------|
E|-----------------------------------------------------------|
pm-   . .   . .   . .   . .       . .   . .   . .   . .

e|-----7-----10-----7-----10------------8-----------8---|
B|-------------------------------10----------10---------|
G|------------------------------------------------------|
D|-5-5---5-5----5-5---5-5-------------------------------|
A|----------------------------8-8---8-8---8-8---8-8-----|
E|------------------------------------------------------|
pm-. .   . .    . .   . .     . .   . .   . .   . .

there you have it... the right way to play it if have to say other wise (X) suck it!! 
j/k email me with any corrections you think there are oh if u want the solo... ask me n 
tab it...