Coheed And Cambria - Wake Up Chords & Tabs

 

Wake Up Chords & Tabs

Coheed And Cambria Chords & Tabs

Version: 4 Type: Tab

Wake Up Tab

Alright, so I just tabbed this out tonight. I saw a couple tabs on here, claiming that
Claudio tunes his guitar a half-step down. I was watching the MTV Overdrive performance
and he actually capos the fourth fret. But anyway, I used that video to transcribe this
one. It was hard to see his hands, but I think I got pretty close.

================

"Wake Up"
Coheed and Cambria
From the album: Good Apollo, I'm Burning Star IV: Volume One- From Fear Through the Eyes 
Madness

CAPO IV
Standard Tuning


Intro/Verse-

"I'm gonna ride this plane..."
"I'll do anything for you..."
"So leave yourself intact..."
e----------------------------------------------|
b------3--------------3------------------------|
g---------0--------------0-----------0---------|
d------------0--------------0----------0-------|
a---3--------------3-------------2h5-----2-----|
e----------------------------------------------|


e-----------------------------------------------|
b---2-------2p0---------------------------------|
g-----0-----------------------------------------|
d-------0---------------------------------------|
a-----------------------------------------------|
e-----------------------------------------------|


Chorus-
[ Tab from: http://www.guitartabs.cc/tabs/c/coheed_and_cambria/wake_up_tab_ver_4.html ]
"The morning will come..."
e-----------------------------------------------|
b-------------------------3---3---3-3p0---------|
g---------0---------0---------------------------|
d-------0---------0-----------------------------|
a-----2---------2-------------------------------|
e---3---------3---------0---0---0---------------|


e-----------------------------------------------|
b-----5---5---5---5p4-----4---4---4---4---------|
g-----------------------------------------------|
d-----------------------------------------------|
a-----------------------------------------------|
e---5---5---5---5-------5---5---5---5-----------|


e-----------------------------------------------|
b-------------------------3---3---3-3p0---------|
g---------0---------0---------------------------|
d-------0---------0-----------------------------|
a-----2---------2-------------------------------|
e---3---------3---------0---0---0---------------|


e-----------------------------------------------|
b-----5---5---5---5p4-----4---------------------|
g-----------------------------------------------|
d-----------------------------------------------|
a-----------------------------------------------|
e---5---5---5---5-------5-----------------------|