Coheed And Cambria - Time Consumer Chords & Tabs

 

Time Consumer Chords & Tabs

Coheed And Cambria Chords & Tabs

Version: 4 Type: Tab 0 ratings
1 star 2 stars 3 stars 4 stars 5 stars
comments

Time Consumer Tab

   
-------------------------------------------------------------------------------
		    Time Consumer - Coheed and Cambria
-------------------------------------------------------------------------------

Tabbed by: joecool71	
Email: mattconnellan@yahoo.com, mconne@lincoln.navy.mil

Tuning: Drop D (DADGBE)

This is the first song in my new Coheed and Cambria series. The intro is
very difficult to hear on the cd, but there are two separate parts both times
through. You'll have to listen closely if you want to peel them apart.  Enjoy!

Intro
e|---------5-----------5-------------5-----------5------------------------------->
B|-----3-----3-----3-----3---3---3-----3-----3-----3------11----------10--------->
G|-2/5---------5-5---------5---5---------5-5---------5-------10----------10------>
D|-------0-----------0-------------0-----------0-------0--------0-X5--------0-X5->
A|------------------------------------------------------------------------------->
E|------------------------------------------------------------------------------->

e|------------8------------------------------------------------------|
B|----10--------10-----------10------10------------8-------8---------|
G|-------10---------------------10------10-----------10------10------|
D|-/8-------8------8\-X4--/8-------8-------8-0-/10------10------10---|
A|-------------------------------------------------------------------|
E|-----------------------------------------------------------------0-|

Intro lead 1st half
e|----------------------------------------------------------------->
B|-8---------8---------8---------8----8--11-11-10-10-10--8-8-8-8-8->
G|---10-9-10---10-9-10---10-9-10---10------------------------------>
D|----------------------------------------------------------------->
A|----------------------------------------------------------------->
E|----------------------------------------------------------------->

e|-------------------------------------------------|
B|-11-11-10-10-10--8-8-8-8------8----8------8----8-|
G|--------------------------/10---10----/10---10---|
D|-------------------------------------------------|
A|-------------------------------------------------|
E|-------------------------------------------------|

Intro lead 2nd half (same rhythm part as 1st half)
e|---------------------------------------13-----------17---------->
B|-8---------8---------8--------------8-----11-----------15------->
G|---10-9-10---10-9-10---10-9-10-9-10----------12-----------15---->
D|------------------------------------------------X5-----------X5->
A|---------------------------------------------------------------->
E|---------------------------------------------------------------->

e|-----20---------------20----------------------------------|
B|--------18---------------17------------8----8------8----8-|
G|-19--------19---------------17-----/10---10----/10---10---|
D|--------------X5--17-----------X5-------------------------|
A|----------------------------------------------------------|
E|----------------------------------------------------------|

Fill 1
e|-----------------------------------------------------------------|
B|-----------------------------------------------------------------|
G|-10--9-10-12--12-10-12-10--12-10-12-10--12-10-12-10--12-10-12-10-|
D|-----------------------------------------------------------------|
A|-----------------------------------------------------------------|
E|-----------------------------------------------------------------|
[ Tab from: http://www.guitartabs.cc/tabs/c/coheed_and_cambria/time_consumer_tab_ver_4.html ]
Verse
e|----------------------------------------------------------------------------|
B|----------------------------------------------------------------------------|
G|----------------------------------------------------------------------------|
D|-10-10--10-10--10-10--10-10--10-10--10-10-10-10-10-10-10-10-10-10-10-10--10-|
A|-8--8---8--8---8--8---8--8---8--8---8--8--8--7--7--7--8--8--8--7--7--7---10-|
E|-8--8---8--8---8--8---8--8---8--8----------------------------------------10-|
                                      .  .  .  .  .  .  .  .  .  .  .  .   .
Verse lead 1
e|-----------------------------|
B|-----------------------------|
G|-----10-----10-----10-----10-|
D|-7-8----7-8----7-8----7-8----|
A|-----------------------------|
E|-----------------------------|

Verse lead 2 (not a guitar on the album, but here it is)
e|-------------------------|
B|-13-11-10-------10-------|
G|----------10-12----10----|
D|----------------------10-|
A|-------------------------|
E|-------------------------|

Chorus
e|--------------------13-13-13\10-10-10-8-8-8/12-12-12-13-13-13\10-10-10-8-8-8/12-12-12-|
B|-13-------13--------x--x--x-----x--x--x-x-x-x--x--x--x--x--x-----x--x--x-x-x----x--x--|
G|-x---9-10-x---9-10--10-10-10\7--7--7--5-5-5/9--9--9--10-10-10\7--7--7--5-5-5/9--9--9--|
D|-10--x-x--10--x-x---------------------------------------------------------------------|
A|-----7-8------7-8---------------------------------------------------------------------|
E|--------------------------------------------------------------------------------------|

Fill 2
e|----------------------------------------|
B|---10------10--------10------10---------|
G|------10------10--------10------10---10-|
D|-8-------8-------8-8-------8-------8-10-|
A|-------------------------------------8--|
E|-------------------------------------8--|

Bridge
e|-----------0-------------------------------------------|
B|-------------------------------------------------------|
G|-----5-------5-------5-----5-----7-7--7-7--9-9--5-5--5-|
D|---3---3-------3-------3-----5---5-5--5-5--7-7--3-3--3-|
A|-5-------5-------3h5-----5-----3-5-5--5-5--7-7--3-3--3-|
E|---------------------------------5-5--5-5--7-7--3-3--3-|

Fill 3
e|--------------------------|
B|--------------------------|
G|-5-5--5-5--5-5--5-5--5----|
D|-5-5--5-5--5-5--5-5--5--0-|
A|-3-3--3-3--3-3--3-3--3--0-|
E|------------------------0-|

Solo (the part over the re-played intro only)
e|-----------------------5-8-------------------------------------------|
B|-------------------5-6-----8-6p5--5-6-5--5-6-5-----6-8-6-5-----5-----|
G|---------------7-7-------------------------------5---------5-7---5\2-|
D|-3p2---3p2-----------------------------------------------------------|
A|-----3-----3---------------------------------------------------------|
E|---------------------------------------------------------------------|

LYRICS AND RIFF PLACEMENT

[INTRO W/ LEAD 1]
[INTRO W/ LEAD 2]
[FILL 1]
[VERSE W/ LEAD1] X8
The young stale memories of play the role to your part
Librarian find me the pole the one that kicks your head in
With my own time role your own innocence by
Grab onto my sleeve the one that grabs at your ankle
Debate to understand that we all have a flaw
Then fail to represent life as you know it
God grant you one wish to turn back the time... correct and create
[CHORUS] X2
Me and my star Matthew good night
You know by law when you'll be forgiven
Maria my star Matthew good night
You know my lord when you'll be forgiven
[VERSE W/ LEAD 2] X4
So they pulled your confidence down with those verbal discrepancies
Now and then you'll gain what they've lost through a challenge of unpronounced
Pain is only a pulse if you just stop feeling it
You might be able to use the very thing that makes us up
[CHORUS] X2
Me and my star Matthew good night
You know by law when you'll be forgiven
Maria my star Matthew good night
You know my lord when you'll be forgiven
[FILL 2]
[BRIDGE] X4
Wait now, here, when will you believe?
Me I'm merely asking you to help me when did I say to murder?
Wait now, here, please hear me out
Time consumer, time consuming, consume me
[FILL 3]
[INTRO W/ LEAD 2 AND SOLO]
[FILL 1]
[CHORUS] X2
Me and my star Matthew good night
You know by law when you'll be forgiven
Maria my star Matthew good night
You know my lord when you'll be forgiven
[CHORUS W/ VERSE LEAD 2] X2
You know tonight they'll promise you that

| /  slide up
| \  slide down
| h  hammer-on
| p  pull-off
| ~  vibrato
| +  harmonic
| x  Mute note
===============================================================================
Comments