Coheed And Cambria - Three Evils Embodied In Love And Shadow Chords & Tabs

 

Three Evils Embodied In Love And Shadow Chords & Tabs

Coheed And Cambria Chords & Tabs

Version: 5 Type: Tab

Three Evils Embodied In Love And Shadow Tab

   
Coheed and Cambria
Three evils (embodied in love and shadow)          

E|----------------------------------|\
B|---66-77-66-77--------------------| \
G|---77-77-44-77--------------------|  x4
D|----------------------------------|  /
A|----------------------------------| / 
E|----------------------------------|/

E|----------------------------------|
B|---6666-7777-6666-7777------------| 
G|---7777-7777-4444-7777------------|  
D|----------------------------------|  
A|----------------------------------| 
E|----------------------------------|

B [hold for eight beats]

E|----------------------------------|\
B|---66-77-66-77--------------------| \
G|---77-77-44-77--------------------|  x2
D|----------------------------------|  /
A|----------------------------------| / 
E|----------------------------------|/

E|----------------------------------|
B|---6666-7777-6666-7777------------| 
G|---7777-7777-4444-7777------------|  
D|----------------------------------|  
A|----------------------------------| 
E|----------------------------------|

B x8
 
E|----------------------------------|\
B|---66-77-66-77--------------------| \
G|---77-77-44-77--------------------|  x2
D|----------------------------------|  /
A|----------------------------------| / 
E|----------------------------------|/

E|----------------------------------|
B|---6666-7777-6666-7777------------| 
G|---7777-7777-4444-7777------------|  
D|----------------------------------|  
A|----------------------------------| 
E|----------------------------------|


B x8   A x8


E|----------------------------------------|\
B|----------------------------------------| \
G|----13----------13----------------------|  \
D|--------14----------14------------------|  /  x2
A|1212-1212---1212-1212----1212-16--------| /
E|----------------------------------------|/


[right after the above]
E|-----------------------------------------------------------------------|
B|-----------------------------------------------------------------------| 
G|------12-----------12------------12-----12-----12----------------------|  
D|------------12-----------12------------------------121112-11----------|  
A|--1010--1010---1010--1010----1010---1010---1010--------12------1212----| 
E|-----------------------------------------------------------------------|

[Then, repeat]

E|----------------------------------------|\
B|----------------------------------------| \
G|----13----------13----------------------|  \
D|--------14----------14------------------|  /  x2
A|1212-1212---1212-1212----1212-16--------| /
E|----------------------------------------|/



[right after the above]
E|-----------------------------------------------------------------------|
B|-----------------------------------------------------------------------| 
G|------12-----------12------------12-----12-----12----------------------|  
D|------------12-----------12------------------------121112-11----------|  
A|--1010--1010---1010--1010----1010---1010---1010--------12------1212----| 
E|-----------------------------------------------------------------------|

E|----------------------------------|\
B|---66-77-66-77--------------------| \
G|---77-77-44-77--------------------|  x2
D|----------------------------------|  /
A|----------------------------------| / 
E|----------------------------------|/

E|----------------------------------|
B|---6666-7777-6666-7777------------| 
G|---7777-7777-4444-7777------------|  
D|----------------------------------|  
A|----------------------------------| 
E|----------------------------------|

B x8

E|----------------------------------|\
B|---66-77-66-77--------------------| \
G|---77-77-44-77--------------------|  x2
D|----------------------------------|  /
A|----------------------------------| / 
E|----------------------------------|/

E|----------------------------------|
B|---6666-7777-6666-7777------------| 
G|---7777-7777-4444-7777------------|  
D|----------------------------------|  
A|----------------------------------| 
E|----------------------------------|

B x8 -> A x8

[Pick the 12th twice before each other note]
E|----------------------------------------|\
B|----------------------------------------| \
G|----13----------13----------------------|  \
D|--------14----------14------------------|  /  x2
A|1212-1212---1212-1212----1212-16--------| /
E|----------------------------------------|/


[right after the above]
E|-----------------------------------------------------------------------|
B|-----------------------------------------------------------------------| 
G|------12-----------12------------12-----12-----12----------------------|  
D|------------12-----------12------------------------121112-11----------|  
A|--1010--1010---1010--1010----1010---1010---1010--------12------1212----| 
E|-----------------------------------------------------------------------|

[Then, repeat]

E|----------------------------------------|\
B|----------------------------------------| \
G|----13----------13----------------------|  \
D|--------14----------14------------------|  /  x2
A|1212-1212---1212-1212----1212-16--------| /
E|----------------------------------------|/

[ Tab from: http://www.guitartabs.cc/tabs/c/coheed_and_cambria/three_evils_embodied_in_love_and_shadow_tab_ver_5.html ]
[right after the above]
E|-----------------------------------------------------------------------|
B|-----------------------------------------------------------------------| 
G|------12-----------12------------12-----12-----12----------------------|  
D|------------12-----------12--------------------------------------------|  
A|--1010--1010---1010--1010----1010---1010---1010------------------------| 
E|-------------------------------------------------------|

E|----------------------------------------------------------|\
B|----------------------------------------------------------| \
G|----------------------------------------------------------|  \ x3
D|----------------7------------------------------------|  /
A|--444444-----77-5------------------------------------| /
E|--222222----------55--------------------------------------|/

 /-----x3----------------------------\      3rd time end on
E|-------------------------------------|---------------------|
B|-------------------------------------|---------------------| 
G|-------------------------------------|---------------------|  
D|--4444444----7777777----66-6-6-6-6-6-|---------------------|  
A|--2222222----5555555----44-4-4-4-4-4-|---5-----------------| 
E|-------------------------------------|---3-----------------|

[OUTRO]
E|-------------9-----9-----9-----9------9----12-9--12-9--12-9--12-9-12-9--|
B|----9-10p---9-10p----10----10----10----10------7-----7-----7-----7----7-| 
G|--9-------9-------------9-----9-----9-----9-----------------------------|  
D|------------------------------------------------------------------------|  
A|------------------------------------------------------------------------| 
E|------------------------------------------------------------------------|

E|---7-910-12--7-9-12--7-9-12--7-9-12--7-9-12--7-9-12--7-9-12--9-10-9-7---|
B|---------------------------------------------------------------------10p| 
G|------------------------------------------------------------------------|  
D|------------------------------------------------------------------------|  
A|------------------------------------------------------------------------| 
E|------------------------------------------------------------------------|

E|-------------9-----9-----9-----9------9----12-9--12-9--12-9--12-9-12-9--|
B|----9-10p---9-10p----10----10----10----10------7-----7-----7-----7----7-| 
G|--9-------9-------------9-----9-----9-----9-----------------------------|  
D|------------------------------------------------------------------------|  
A|------------------------------------------------------------------------| 
E|------------------------------------------------------------------------|

E|---7-910-12--7-9-12--7-9-12--7-9-12--7-9-12--7-9-12--7-9-12--9-10-9-7---|
B|---------------------------------------------------------------------10p| 
G|------------------------------------------------------------------------|  
D|------------------------------------------------------------------------|  
A|------------------------------------------------------------------------| 
E|------------------------------------------------------------------------|


E|--12-9-7-12-9---12-9-7-12-9----12-9-7-12-9----9-12--9------------------|
B|--------------9p------------7p-------------5p---------------------------| 
G|------------------------------------------------------------------------|  
D|------------------------------------------------------------------------|  
A|------------------------------------------------------------------------| 
E|------------------------------------------------------------------------|

E|---7-910-12--7-9-12--7-9-12--7-9-12--7-9-12--7-9-12--7-9-12--9-10-9-7---|
B|---------------------------------------------------------------------10p| 
G|------------------------------------------------------------------------|  
D|------------------------------------------------------------------------|  
A|------------------------------------------------------------------------| 
E|------------------------------------------------------------------------|


E|--12-9-7-12-9---12-9-7-12-9----12-9-7-12-9----9-12--9------------------|
B|--------------9p------------7p-------------5p---------------------------| 
G|------------------------------------------------------------------------|  
D|------------------------------------------------------------------------|  
A|------------------------------------------------------------------------| 
E|------------------------------------------------------------------------|

E|---7-910-12--7-9-12--7-9-12--7-9-12--7-9-12--7-9-12--7-9-12--9-10-9-7---|
B|---------------------------------------------------------------------10p| 
G|------------------------------------------------------------------------|  
D|------------------------------------------------------------------------|  
A|------------------------------------------------------------------------| 
E|------------------------------------------------------------------------|


E|--12-9-7-12-9---12-9-7-12-9----12-9-7-12-9----9-12--9-------|
B|--------------9p------------7p-------------5p----------------| 
G|-------------------------------------------------------------|  
D|-------------------------------------------------------------|  
A|-------------------------------------------------------------| 
E|-------------------------------------------------------------|