Coheed And Cambria - Three Evils Embodied In Love And Shadow Chords & Tabs

 

Three Evils Embodied In Love And Shadow Chords & Tabs

Coheed And Cambria Chords & Tabs

Version: 1 Type: Tab 0 ratings
1 star 2 stars 3 stars 4 stars 5 stars
comments

Three Evils Embodied In Love And Shadow Tab

   
Coheed and Cambria
Three Evils (Embodied in Love and Shadow)
Tabbed by Kellen

/=slide
~=let ring
x=quick stop

I'm pretty sure this is how Claudio played it on Jimmy Kimmel Live

Standard Tuning
Intro
E|-----------------------------------
B|-----------------------------------
G|----666-6/99-9/77-7----66-6/99-9/77
D|-77-666-6/99-9/77-777-766-6/99-9/77
A|-77-444-4/77-7/55-577-744-4/77-7/55
E|-55----------------55-5------------

Verse  "across the floor..."
E|-----------------------------------
B|-----------------------------------
G|----666-6/99-9/77-7----66-6/99-9/77
D|-77-666-6/99-9/77-777-766-6/99-9/77
A|-77-444-4/77-7/55-577-744-4/77-7/55
E|-55----------------55-5------------

Then  "a cautious ear to the mouth of your confession"
E|-------------------
B|-------------------
G|-7-----------------
D|-7-7777777777777777
A|-5-7777777777777777
E|---5555555555555555

Then  "think of all the things we put him through..."
E|---------------------------------
B|---------------------------------
G|---------------------------------
D|-99999999999999999999999999999999
A|-99999999999999999999999999999999
E|-77777777777777777777777777777777

Verse  "still recorded where the words that dribbled out his kiss"
E|-----------------------------------
B|-----------------------------------
G|----666-6/99-9/77-7----66-6/99-9/77
D|-77-666-6/99-9/77-777-766-6/99-9/77
A|-77-444-4/77-7/55-577-744-4/77-7/55
E|-55----------------55-5------------

Then  "when eyes go blind..."
E|-------------------
B|-------------------
G|-7-----------------
D|-7-7777777777777777
A|-5-7777777777777777
E|---5555555555555555

Then  "sever the limbs off his torso in sleep..."
E|---------------------------------
B|---------------------------------
G|---------------------------------
D|-99999999999999999999999999999999
A|-99999999999999999999999999999999
E|-77777777777777777777777777777777

Verse  "will we wait for your answers?"
E|------------------------------------------------------
B|------------------------------------------------------
G|----666-6/99-9/77-7----66-6/99-9/77-7----6666-99999999
D|-77-666-6/99-9/77-777-766-6/99-9/77-777-76444-99999999
A|-77-444-4/77-7/55-577-744-4/77-7/55-577-74444-77777777
E|-55----------------55-5--------------55-5-------------

Then
E|-------------------------------------------------------------------
B|-------------------------------------------------------------------
G|-------------------------------------------------------------------
D|-9999999999999999999999999999-12---11111111111111111111111111111111
A|-9999999999999999999999999999-12---11111111111111111111111111111111
E|-7777777777777777777777777777-10---99999999999999999999999999999999
 " Think of all...that says     good bye"

Then  "you'll listen to reason, while your face down in the dirt"
E|---------------------------------------------------------------
B|---------------------------------------------------------------
G|---------------------------------------------------------------
D|-7777777777777777-9999999944444444-5555555555555555------------
A|-7777777777777777-9999999944444444-5555555555555555--5-4--5-4--
E|-5555555555555555-7777777722222222-3333333333333333-5----5----5
    | palm mute   |  | palm mute   | |  palm mute   |

Then "you'll stomach the hurt, and break for him here, just how much he worth"
E|---------------------------------------------------------------
B|---------------------------------------------------------------
G|---------------------------------------------------------------
D|-7777777777777777-9999999944444444-5555555555555555------------
A|-7777777777777777-9999999944444444-5555555555555555--5-4--5-4--
E|-5555555555555555-7777777722222222-3333333333333333-5----5----5
    | palm mute   |  | palm mute   | |  palm mute   |

Verse  "slowly discarded where the remains of his lonely youth..."
E|------------------------------------------------------
B|------------------------------------------------------
G|----666-6/99-9/77-7----66-6/99-9/77-7----6666-99999999
D|-77-666-6/99-9/77-777-766-6/99-9/77-777-76444-99999999
A|-77-444-4/77-7/55-577-744-4/77-7/55-577-74444-77777777
E|-55----------------55-5--------------55-5-------------
[ Tab from: http://www.guitartabs.cc/tabs/c/coheed_and_cambria/three_evils_embodied_in_love_and_shadow_tab.html ]
Then  "picture a young boy..."
E|---------------------------------
B|---------------------------------
G|---------------------------------
D|-99999999999999999999999999999999
A|-99999999999999999999999999999999
E|-77777777777777777777777777777777

Verse  "we'll fix him restore him, with the love if no other"
E|------------------------------------------------------
B|------------------------------------------------------
G|----666-6/99-9/77-7----66-6/99-9/77-7----6666-99999999
D|-77-666-6/99-9/77-777-766-6/99-9/77-777-76444-99999999
A|-77-444-4/77-7/55-577-744-4/77-7/55-577-74444-77777777
E|-55----------------55-5--------------55-5-------------

Then
E|-------------------------------------------------------------------
B|-------------------------------------------------------------------
G|-------------------------------------------------------------------
D|-9999999999999999999999999999-12---11111111111111111111111111111111
A|-9999999999999999999999999999-12---11111111111111111111111111111111
E|-7777777777777777777777777777-10---99999999999999999999999999999999
  "think of all...that says     re   born"

Then  "you'll listen to reason, while your face down in the dirt"
E|---------------------------------------------------------------
B|---------------------------------------------------------------
G|---------------------------------------------------------------
D|-7777777777777777-9999999944444444-5555555555555555------------
A|-7777777777777777-9999999944444444-5555555555555555--5-4--5-4--
E|-5555555555555555-7777777722222222-3333333333333333-5----5----5
    | palm mute   |  | palm mute   | |  palm mute   |

Then "you'll stomach the hurt, and break for him here, just how much he worth"
E|----------------------------------------------
B|----------------------------------------------
G|----------------------------------------------
D|-7777777777777777-9999999944444444-55555555-0~
A|-7777777777777777-9999999944444444-55555555-0~
E|-5555555555555555-7777777722222222-33333333-0~
   | palm mute   |  | palm mute   | | mute  |

Then  x3 "following you across the interstate, walking away"
e|---------------------------------------------------
B|---------------------------------------------------
G|---------------------------------------------------
D|-----------------------------------7777777777777777
A|44444444-0-0-4-0-5----2-4------7-7-5555555555555555  third time let last chord ring
E|22222222-----------------------5-5-5555555555555555

Then  x3  "on the wrong way out, on the causeway to neverwhere"
E|----------------------------------------------------------------------------------
B|----------------------------------------------------------------------------------
G|----------------------------------------------------------------------------------
D|-99999999999999999999999999999999-12121212121212121212121212121212-11-111-11-11-11
A|-99999999999999999999999999999999-12121212121212121212121212121212-11-111-11-11-11
E|-77777777777777777777777777777777-10101010101010101010101010101010-99-999-99-99-99

Then  x2 with "dear my friends, in the time we spend..."
E|--------------------------------------------------------------------
B|--------------------------------------------------------------------
G|--------------------------------------------------------------------
D|-7777777777777777-7777777777777777-4444444444444444-2222222222222222
A|-7777777777777777-7777777777777777-4444444444444444-2222222222222222
E|-5555555555555555-4444444444444444-2222222222222222-0000000000000000

Continued
E|---------------------------------------
B|---------------------------------------
G|-777777777777777777777777--------------
D|-777777777777777777777777--------------
A|-555555555555555555555555--5-4--5-4--5-
E|--------------------------5----5----5--

Then until the end with "pull the trigger and the nightmare stops"
E|--------------------------------------------------------------------
B|--------------------------------------------------------------------
G|--------------------------------------------------------------------
D|-7777777777777777-7777777777777777-4444444444444444-2222222222222222
A|-7777777777777777-7777777777777777-4444444444444444-2222222222222222
E|-5555555555555555-4444444444444444-2222222222222222-0000000000000000

Continued
E|---------------------------------------
B|---------------------------------------
G|-777777777777777777777777--------------
D|-777777777777777777777777--------------
A|-555555555555555555555555--5-4--5-4---5
E|--------------------------5----5-----5-


Email me at kgator86@msn.com with any comments or corrections
Comments