Coheed And Cambria - The Crowing Chords & Tabs

 

The Crowing Chords & Tabs

Coheed And Cambria Chords & Tabs

Version: 1 Type: Bass Tab 0 ratings
1 star 2 stars 3 stars 4 stars 5 stars
comments

The Crowing Bass Tab

   
----------------------------------------------------------------------------
			 THE CROWING - Coheed and Cambria
----------------------------------------------------------------------------

Tabbed By : Tim 
e-mail: Brainyboy790@optonline.net

Tuning: Standard

Ok, The Crowing. Wow, this song is so hard. And there are absolutely NO other bass
tabs for this song anywhere, so I had absolutely no one else's influence on this tab
whatsoever so this is all tabbed from scratch. Ok so there's a few things I have to
say about this song. A) the "solo" part after "Pray you're not the only one" was so
unbelievably hard to figure out. I'm 99% sure I got it right though. B)The part after
the solo was really hard to figure out and ironically, there turned out to actually be
nothing to play there at all. With that I present to you...
The Crowing.

Verse
G|----------------------------------------------------------|
D|---------------------------12-----------------------------|
A|-77-77-9h10-9-7-99-99-10h12--12-55-55--5-55-33-33-0320--5-|
E|-------------------------------------55---------------30--|

Chorus ("But you, you know, you were my favorite")
G|-------------------------------------------------|
D|-------------------------------------------------|
A|-------------------------------------------------|
E|-0-0-0-0~----0-0-0-0~----8-8-8-8~----8-8-8-8~-7~-|

Rest for four measures after the chorus and then come in and do the verse again

Chorus

Bridge Part 1 ("would I walk through the door...")
G|-------------------------------------|
D|-------------------------------------|
A|-------------------------------------|
E|-8888-8-8-00-0-0-0-10101010-101010-7-|
[ Tab from: http://www.guitartabs.cc/tabs/c/coheed_and_cambria/the_crowing_btab.html ]
Part 2 ("Pray you're not the only one.")
G|------------------------------------------------------------------|
D|------------------------------------------------------------------|
A|-777777777777777777777777777777775555555555555555---777---777-----|
E|-------------------------------------------------888---555---8877-|

Part 3 (Solo)
G|----------------------------------------------4~-----------9-----|
D|--------------------------(Rest while the---)------------9---10~-|
A|--------------------------(two guitars do---)-----7-9-10---------|
E|-000000000000000000000000-(their pinch thing)--------------------|

Part 4("If they form mistakes would I take them back")
G|-------------------------------------------|
D|--------------------(Rest while the 2)-----|
A|--------------------(guitars do their)-----|
E|-77-55-77-55-77-55--(pinch solo thing)--7~-|

Part 5 ("But would they be the words that I would say")
G|------------------------------------------------------------------------|
D|------------------------------------------------------------------------|
A|--------------------------------------------------------------10~-------|
E|-3-3-3-7-7-7~--3-3-3-7-7-7~--3-3-3-7-7-7~--3-3-3-7-7-7~--8-8-----8-8-8~-|

Part 6("Did you ever really know before...")
G|-------------------------------------------------|
D|-------------------------------------------------|
A|-22----22----22----22----------------------------|
E|----00----00----00----00-33-00-33-00-33-00-33-00-|

Part 7 ("Dear Anbellina...")
G|-------------------------------------------------------------------------|
D|-------------------------------------------------------------------------|
A|-----------------555555555555h7--------------------------------44-22-4p0-|
E|-2222222222222222--------------55555555555555550000000000000000----------|


| /  slide up
| \  slide down
| h  hammer-on
| p  pull-off
| ~  vibrato
| +  harmonic
| x  Mute note
============================================================================
Comments