Coheed And Cambria - Suffering Chords & Tabs

 

Suffering Chords & Tabs

Coheed And Cambria Chords & Tabs

Version: 1 Type: Tab 0 ratings
1 star 2 stars 3 stars 4 stars 5 stars
comments

Suffering Tab

   
Title: The Suffering
Artist: Coheed & Cambria
Album: Good Apollo I'm Burning Star IV, Volume 1: From Fear Through
 The Eyes of Madness

Copyright  Columbia Records 2005
Version 1.0 - 08/12/2005 - Original tab

Tabbed by: Chris Frazier (cdf0103@mail.ecu.edu)

So this is the fourth tab of my Good Apollo series, it's for the
track "The Suffering" which is one of my favorite Coheed tracks.
It sounds a lot like Three Evils, Blood Red Summer, and Devil In
Jersey City. If anybody has any question, comments, or corrections
PLEASE send them to me at cdf0103@mail.ecu.edu and you'll be sure
to get FULL CREDIT for anything you submit to me.
Enjoy!

This tab is reserved for the following sites, they will be the only
ones to recieve updated version(s) as they become available. If you
retrieved this tab from another website, please visit one of the
websites below to be sure you have the most accurate version:

http://www.ultimate-guitar.com
http://www.mxtabs.net
http://www.cobaltandcalcium.com

.  - palm mute
/  - slide up and down to
b  - Bend
() - Natural harmonics
*  - Pinch harmonics
h  - Hammer
p  - Pull off
\"  - Tremolo Picking
x  - Mute
... - Keep play chord at steady pace

Guitar I; Electric, Rhythm (Eb Ab Db Gb Bb Eb)(Left Speaker)
Guitar II; Electric, Lead (Eb Ab Db Gb Bb Eb)(Right Speaker)

Phase I (Guitar II)
E|-----------------------------------------------------------------------------------|
B|-----------------------------------------------------------------------------------|
G|-----------------------------------------------------------------------------------|
D|------5-2--0-0-0--5-2--7--9/-------------------------------------------------10-10-|
A|-10/-------------------5--7/--2-2--------------5-7--7-7-7-7-7-5--------------8--8--|
E|-8-/--------------------------0-0--0-0-0--0-0--3-5--5-5-5-5-5-3---0-3-5-3--0-------|
        . .  . . .  . .         . .  . . .  . .       . . . .       . . . .  .

--------------------------||
--------------------------||
--------------------------||
---10-10--10-10--10-10-12-||
---7--8---7--8---7--8--10-||
--------------------------||
   .  .          .  .

Phase I Pt. 1 (Guitar I)
E|------------------------------------------------------------------------------------|
B|------------------------------------------------------------------------------------|
G|-----------------------5--4/-------------------7-9--------9-7/----------7-----10/12-|
D|------5-2--0-0-0--5-2--5--5/-------------------x-x--------x-x-------------7/--x--x--|
A|------------------------------2-2--------------5-7--------7-5/----------------8-/10-|
E|------------------------------0-0--0-0-0--0-0-------0-0-0-------0-3-5-3-------------|
        . .  . . .  .           . .  . . .  . .       . . .       . . . .

-------------------------||
-------------------------||
---12/14---14/16/14--12/-||
---x--x----x--x--x---x---||
---10/12---12/14/12--10/-||
-0-------0---------------||
 .       .

Phase I Pt. 2 (Guitar I)
E|---------------------------------------------------------------------------------------|
B|---------------------------------------------------------------------------------------|
G|-----------------------5--4/-------------------7*-9--------9*-7/----------7*-----10/12-|
D|------5-2--0-0-0--5-2--5--5/-------------------------------------------------7/---x--x-|
A|------------------------------2-2------------------------------------------------8-/10-|
E|------------------------------0-0--0-0-0--0-0-------0-0-0--------0-3-5-3---------------|
        . .  . . .  .           . .  . . .  . .       . . .        . . . .

------------------------||
------------------------||
--12/14---14/16/14--12/-||
---x--x----x--x--x---x--||
--10/12---12/14/12--10/-||
------------------------||
[ Tab from: http://www.guitartabs.cc/tabs/c/coheed_and_cambria/suffering_tab.html ]
Phase II (Guitar I)
E|----------------------------------------------------------------------------------------|
B|----------------------------------------------------------------------------------------|
G|----------------------------------------------------------------------------------------|
D|--------------------------------------------------------------------------------------5-|
A|-12/-----------------------------------3--3-3-3--3-3-3--3-3-5--7-7-...--7-5--5-...--5-3-|
E|-10/-----------------------------------1--1-1-1--1-1-1--1-1-3--5-5-...--5-3--3-...--3---|
                                            . . .  . . .  . .      . ...       . ...

--------------------------------||
--------------------------------||
--------------------------------||
-5-...-5------------------------||
-3-...-3-3--3-...-3/--3-...-3---||
---------1--1-...-1/--1-...-1/12||
 . ...      . ...       ...

Phase II Pt. 1 (Guitar II)
E|---------------------------|
B|---------------------------|
G|---------------------------|
D|---------------------------|
A|-12/---x-x-x--x-x-x--x-x-x-|
E|-10/---x-x-x--x-x-x--x-x-x-|

|---8---8------------------8---8--------------------------------------------------------|
|-8---8---8-6-5b--7-5b---8---8---8------------------------------------------------------|
|-------------------------------------5-7-5/-----5-7-5h7p5----5-7-5/-------------5-5-5/-|
|-----------------------------------5---------5-------------5--------7-7-7-7-7-7--------|
|---------------------------------------------------------------------------------------|
|---------------------------------------------------------------------------------------|
                                  .         .             .        . . . . . . . .

|------------||
|------------||
|------------||
|------------||
|-3-...-3----||
|-1-...-1/12-||


Phase II Pt. 2 (Guitar II)
E|---8---8------------------8---8-------------------------------------------------10-10b-8-8-||
B|-8---8---8-6-5b--7-5b---8---8---8----------------------------------------------------------||
G|-------------------------------------5-7-5/-----5-7-5h7p5----5-7-5/------------------------||
D|-----------------------------------5---------5-------------5--------7-7-7-7-7-7------------||
A|-------------------------------------------------------------------------------------------||
E|-------------------------------------------------------------------------------------------||
                                     .         .             .        . . . . . .

Phase III (Guitar I)
E|-------------------------||
B|-------------------------||
G|-------------------------||
D|-5-...-------------------||
A|-3-...-5-...-7-...-3-...-||
E|-------3-...-5-...-1-...-||

Phase III Pt. 1 (Guitar II)
E|-----------------------------------------------------------------------------------||
B|-----------------------------------------------------------------------------------||
G|-----12-10-9-10-9------12-10-9-10-9---9-...-9/7-...-7/9-...-9/10-------------------||
D|-10----------------10-----------------x-...-x/x-...-x/x-...-x/x--------------------||
A|--------------------------------------7-...-7/5-...-5/7-...-7/8----2h3p2---2h3---5-||
E|-------------------------------------------------------------------------3-----3---||

Phase III Pt. 2 (Guitar II)
E|----------------------------------------------------------------------------------------||
B|----------------------------------------------------------------------------------------||
G|-----12-10-9-10-9---------9-10-12-12b-10---9-...-9/7-...-7/9-...-9/10-------------------||
D|-10----------------10--12------------------x-...-x/x-...-x/x-...-x/x--------------------||
A|-------------------------------------------7-...-7/5-...-5/7-...-7/8----2h3p2---2h3---5-||
E|------------------------------------------------------------------------------3-----3---||

Phase IV (Guitar I)
E|---------------------------------------------------------||
B|---------------------------------------------------------||
G|---------------------------------------------------------||
D|-5-...---------------------------------------------------||
A|-3-...-5-...-7-...-3-...-5-...--8-7---8-7---10-------10/-||
E|-------3-...-5-...-1-...-3-...------8-----8-8--------8-/-||

Phase IV (Guitar II)
E|------------------------------------------------------------------------------------|
B|------------------------------------------------------------------------------------|
G|-----12-10-9-10-9------12-10-9-10-9---9-...-9/7-...-7/9-...-9/10--------------------|
D|-10----------------10-----------------x-...-x/x-...-x/x-...-x/x---------------------|
A|--------------------------------------7-...-7/5-...-5/7-...-7/8----2h3p2---2h3---5--|
E|-------------------------------------------------------------------------3-----3----|

-------------------------------------------||
-------------------------------------------||
-------------------------------------------||
-------------------------------------------||
----2-------------8-7---8-7---10-------10/-||
-----------3----------8-----8-8--------8---||
Comments