Coheed And Cambria - Neverender Chords & Tabs

 

Neverender Chords & Tabs

Coheed And Cambria Chords & Tabs

Version: 1 Type: Tab 0 ratings
1 star 2 stars 3 stars 4 stars 5 stars
comments

Neverender Tab

-------------------------------------------------------------------------------
	            Neverender - Coheed and Cambria
-------------------------------------------------------------------------------
Tabbed by:Ian Ursprung
Email:armistice369@verizon.net
[ Tab from: http://www.guitartabs.cc/tabs/c/coheed_and_cambria/neverender_tab.html ]
Tuning:DADGBE
 
 Part 1 
 0:00-0:16
 six times
e|--------------------------------------------------------------------------|
B|--------------------------------------------------------------------------|
G|--------------------------------------------------------------------------|
D|-6-6----------------------------------------------------------------------|
A|-4-4-9-9-1111-7-7-4h6-6-6-6-----------------------------------------------|
E|-----7-7-7-7--7-7-4h6-6-6-6-----------------------------------------------|
 
 Part 2
 0:17-0:34
 three times
e|-----------------------------------------4-5-4-0--------------------------|
B|--------------------------------------------------------------------------|
G|--------------------------------------------------------------------------|
D|-6-6-6-6-9-9-9-9----------------------------------------------------------|
A|-4-4-4-4-7-7-7-7-7-7-7-7-4-4-4-4-6-6-6-6----------------------------------|
E|-----------------7-7-7-7-4-4-4-4-6-6-6-6----------------------------------|
                           P.M.----------|
 Part 3
 0:35-1:21
 four times 
e|--------------------------------------------------------------------------|
B|-(16-times-each)-----------------------4/5--------------------------------|
G|-(palm-mute)--------------------------------------------------------------|
D|-(6)----------------------------------------------------------------------|
A|-(4)-(7)-(4)--1111-9-9-7-9-4-4-4-4----------------------------------------|
E|-----(7)-(4)--7-7--7-7-7-7-4-4-6-6----------------------------------------|

 Part 4 - "In graver mistakes..."
 1:22-1:43
 two times
e|--------------------------------------------------------------------------|
B|-(16-times-each)----------------------------------------------------------|
G|--------------------------------------------------------------------------|
D|-(9)-----(6)--------------------------------------------------------------|
A|-(7)-(7)-(4)-(7)----------------------------------------------------------|
E|-----(7)-----(7)----------------------------------------------------------|
 
 1:45-1:50 - Part 2, one time
 1:51-2:13 - Part 3, two times
 2:14-2:37 - Part 3, two times without palm mute
 2:38-3:01 - Part 4

 Part 5 - "Point your gun in another direction..."
 3:02-3:24

e|--------------------------------------------------------------------------|
B|--------------------------------------------------------------------------|
G|--------------------------------------------------------------------------|
D|-6-6-6-6-6-6-6-6----------------------------------------------------------|
A|-4-4-4-4-4-4-4-4-2-2-2-2-2-2-2-2-7-7-7-7-7-7-7-7-7-7-7-7-7-7-7-7----------|
E|-----------------2-2-2-2-2-2-2-2-7-7-7-7-7-7-7-7-7-7-7-7-7-7-7-7----------|

 3:25-4:04 - Parts 1 & 2
 4:05-4:27 - Part 4
 4:28-End  - Part 5 

 One of their best songs, i'll try to get the lead part up soon... I'm  just lazy.
Comments