Coheed And Cambria - Naurashaun Chords & Tabs

 

Naurashaun Chords & Tabs

Coheed And Cambria Chords & Tabs

Version: 1 Type: Tab 0 ratings
1 star 2 stars 3 stars 4 stars 5 stars
comments

Naurashaun Tab

   
--------------------------coheed and cambria--------------------------------
This is coheed and cambria's former band shabutie, but technically its coheed.
Any way the only version of this song has crappy sound... They play it live at
bert fest.....so here it goes.....drop D

E---3--------3---------0h2h3p2p0--------------------------------------------|
B----3--------3------3-------------------0---------0------------------------|
G-----0-----------------------------2------------4--------------------------|
D-2------2------2-0-------------------0-------2-----------------------------|
A---------------------------------2--------4--------------------------------|
D---------------------------------------------------------------------------|

[ Tab from: http://www.guitartabs.cc/tabs/c/coheed_and_cambria/naurashaun_tab.html ]
E-----------------------------12-------12-----------------------------------|
B--10--------10--------10--------10-------10--------------------------------|
G-----11---------11-------11--------11-------11-----------------------------|
D---------0----------0------------------------------------------------------|
A---------------------------------------------------------------------------|
D--0----------0---------0--------11--------11-------------------------------|

F#
we lied to her
G
she lied to us
D (low)
dear god now
B
what is she running from?
D
come on william
B A Gad9
in nightime when you said id rather die here id die
B A Gad9
here id die here with you anyday

And there ya have it...a rare song on a popular site.....peace out

o and my sn is  domed55@aol.com
Comments